Hinário Adventista

home > Hinário Adventista

003 Tab

Hinário Adventista

Difficulty: nolevelnolevel

by tamamoreira

tuner correct add songbook print version text version save to e-mail
chordsukulelecavacokeyboardtabbassdrumsharmonicsflute Guitar Pro
chords

003

  		
1   |   |   |   |   |   |    |   |   |   |   |   |    |   |   |   |   |   |    
E|------------------------|------------------------|------------------------| 
B|-1-----2--1--1----------|-------------1--------4-|-4--------4--4---1-1--1-| 
G|---3-1-----------3-1----|-1---1-3--3-------------|-----3-3----------------| 
D|----------------------1-|------------------------|------------------------| 
A|------------------------|------------------------|------------------------| 
E|------------------------|------------------------|------------------------| 

4   |   |   |   |   |   |  |   |   |   |   |   |  |   |   |   |   |   |  
E|----------------------|----------------------|----------------------| 
B|----------------------|----------------------|----------------------| 
G|-3---1---0-1-3--------|-----1----------------|-----1----------------| 
D|-------3--------------|-1-3---3-----1---3-1--|-1-3---3-----1---3-1--| 
A|----------------------|----------3-----------|----------3-----------| 
E|----------------------|----------------------|----------------------| 

7   |   |   |   |   |   |  |   |   |   |   |   |  |   |   |   |   |   |    
E|----------------------|----------------------|------------------------| 
B|-------------------4--|----------------------|-1-----2--1--1----------| 
G|-1-1-1-1-----1-1-1----|-1----3------1--------|---3-1-----------3-1----| 
D|----------------------|----------------------|----------------------1-| 
A|----------------------|----------------------|------------------------| 
E|----------------------|----------------------|------------------------| 

10  |   |   |   |   |   |    |   |   |   |   |   |    |   |   |   |   |   |  
E|------------------------|------------------------|----------------------| 
B|-------------1--------4-|-4--------4--4---1-1--1-|----------------------| 
G|-1---1-3--3-------------|-----3-3----------------|-3---1---0-1-3--------| 
D|------------------------|------------------------|-------3--------------| 
A|------------------------|------------------------|----------------------| 
E|------------------------|------------------------|----------------------| 

13  |   |   |   |   |   |  |   |   |   |   |   |  |   |   |   |   |   |  
E|----------------------|----------------------|----------------------| 
B|----------------------|----------------------|-------------------4--| 
G|-----1----------------|-----1----------------|-1-1-1-1-----1-1-1----| 
D|-1-3---3-----1---3-1--|-1-3---3-----1---3-1--|----------------------| 
A|----------3-----------|----------3-----------|----------------------| 
E|----------------------|----------------------|----------------------| 

16  |   |   |   |   |   |  |   |   |   |   |   |    |   |   |   |   |   |    
E|----------------------|------------------------|------------------------| 
B|----------------------|-1-----2--1--1----------|-------------1--------4-| 
G|-1----3------1--------|---3-1-----------3-1----|-1---1-3--3-------------| 
D|----------------------|----------------------1-|------------------------| 
A|----------------------|------------------------|------------------------| 
E|----------------------|------------------------|------------------------| 

19  |   |   |   |   |   |    |   |   |   |   |   |  |   |   |   |   |   |  
E|------------------------|----------------------|----------------------| 
B|-4--------4--4---1-1--1-|----------------------|----------------------| 
G|-----3-3----------------|-3---1---0-1-3--------|-----1----------------| 
D|------------------------|-------3--------------|-1-3---3-----1---3-1--| 
A|------------------------|----------------------|----------3-----------| 
E|------------------------|----------------------|----------------------| 

22  |   |   |   |   |   |  |   |   |   |   |   |  |   |   |   |   |   |  
E|----------------------|----------------------|----------------------| 
B|----------------------|-------------------4--|----------------------| 
G|-----1----------------|-1-1-1-1-----1-1-1----|-1----3---------------| 
D|-1-3---3-----1---3-1--|----------------------|----------------------| 
A|----------3-----------|----------------------|-------------11-------| 
E|----------------------|----------------------|----------------------| 
	  

Search Paypal
auto scroll beats size up size down change color hide chords drawings
tab show chords e-chords YouTube Clip e-chords hide all tabs e-chords go to top tab