HIM

home > HIM

You Are The One Tab

HIM

Difficulty: nolevelnolevel

by Theteh

tuner correct add songbook print version text version save to e-mail
chordsukulelecavacokeyboardtabbassdrumsharmonicsflute Guitar Pro
chords

You Are The One

  		E|-------------0---0---x-0-x-0---0-0-------------------------------------| 
B|-------------0---0---x-0-x-3---3-3---------------3---3---x-3-x---------| 
G|-------------0---0---x-0-x-2---2-2---------------0---0---x-0-x-2---2-2-| 
D|-----0-2p0---2---2---x-2-x-0---0-0-------0-2p0---0---0---x-0-x-2---2-2-| 
A|-0h2-------2-2---2---x-2-x-0---0-0---0h2-------2-x---x---x-x-x-0---0-0-| 
E|-------------0---0---x-0-x-0---0-0---------------3---3---x-3-x---------| 
  
 
  
E|-----------------------------------------------------------------------| 
B|-----------------------------------------------------------------------| 
G|-----------------------------------------------------------------------| 
D|-------------9---9\----9---7---7-7-------------------------------------| 
A|-----5-7p5---7---7\----7---5---5-5-------5-7p5---5---5-----9---7---7-7-| 
E|-5h7-------5-7---7\----7---5---5-5---5h7-------5-3---3-----7---5---5-5-| 
  
 
  
 
  
E|-------------|---------------------------------------------------------| 
B|-------------|---------------------------------------------------------| 
G|-------------|---------------------------------------------------------| 
D|-------------|-9---9-----9---7-----7-----------------------------------| 
A|-----5-7p5---|-7---7-----7---5-----5-----------5---5-----9---7-----7---| 
E|-5h7-------5-|-7---7-----7---5-----5-----------3---3-----7---5-----5---| 
  
 
 
 
  
E|------------------------------------------------------------------| 
B|------------------------------------------------------------------| 
G|------------------------------------------------------------------| 
D|-5---5---5-5-5-----------------9---9-9---9-9-9-7---7-7---7-7-7----| 
A|-3---3---3-3-3-7---7-7---7-7-7-7---7-7---7-7-7-5---5-5---5-5-5----| 
E|---------------5---5-5---5-5-5-7---7-7---7-7-7-5---5-5---5-5-5----| 
  
 
          ~~~~~        ~~~~~        ~~~~~    (1/2 bend) 
E|------------------------------------------------------------------| 
B|----------------------------------------------19b-19r-------------| 
G|-21-19-21-----21-19-21-----21-19-21-----19-21---------21--19------| 
D|------------------------------------------------------------------| 
A|------------------------------------------------------------------| 
E|------------------------------------------------------------------| 
  
          ~~~~~        ~~~~~        ~~~~~ 
E|------------------------------------------------------------------| 
B|---------------------------------------------------19h20p19-------| 
G|-21-19-21-----21-19-21-----21-19-21----------19-21----------19-21-| 
D|---------------------------------------19-19----------------------| 
A|------------------------------------------------------------------| 
E|------------------------------------------------------------------| 

	  

Search Paypal
auto scroll beats size up size down change color hide chords drawings
tab show chords e-chords YouTube Clip e-chords hide all tabs e-chords go to top tab