HIM

home > HIM

The Beginning Of The End Tab

HIM

Difficulty: nolevelnolevel

by Theteh

tuner correct add songbook print version text version save to e-mail
chordsukulelecavacokeyboardtabbassdrumsharmonicsflute Guitar Pro
chords

The Beginning Of The End

  		Intro 
 
|----------------------------------| 
|----------------------------------| 
|----------------------------------| 
|----------------------------------| 
|0--0-3-0-0-3-0-0-3-0-3-0-0-3-0-3-3| 
|----------------------------------| 
 
|-------------------------------| 
|-------------------------------| 
|-------------------------------| 
|-------------------------------|        
|0-2-0-0-2-0-0-2-0-2-0-0-2-0-2-2| 
|-------------------------------| 
 
|-------------------------------| 
|-------------------------------| 
|-------------------------------| 
|-------------------------------| 
|0-3-0-0-3-0-0-3-0-3-0-0-3-0-3-3| 
|-------------------------------| 
 
|---------------------------------| 
|---------------------------------| 
|---------------------------------| 
|---------------------------------| 
|0-2-0-0-2-0-0-2-0-2-0/1/2/3/4/5/6| 
|---------------------------------| 
 
|-------------------------------| 
|-------------------------------| 
|-------------------------------| 
|5-8-5-5-8-5-5-8-5-8-5-5-8-5-8-8| 
|5-8-5-5-8-5-5-8-5-8-5-5-8-5-8-8| 
|5-8-5-5-8-5-5-8-5-8-5-5-8-5-8-8| 
                                    }8X 
|-------------------------------| 
|-------------------------------| 
|-------------------------------| 
|5-7-5-5-7-5-5-7-5-7-5-5-7-5-7-7|      
|5-7-5-5-7-5-5-7-5-7-5-5-7-5-7-7| 
|5-7-5-5-7-5-5-7-5-7-5-5-7-5-7-7| 
 
|---| 
|---| 
|---| 
|5-5| 
|5-5| 
|5-5| 
 
 
Chorus 
 
|-------------| 
|-------------| 
|-------------| 
|0---5---3---7|  2X 
|0---5---3---7| 
|0---5---3---7| 
 
 
Post Chorus 
 
|-------------------------------| 
|-------------------------------| 
|-------------------------------| 
|5-8-5-5-8-5-5-8-5-8-5-5-8-5-8-8| 
|5-8-5-5-8-5-5-8-5-8-5-5-8-5-8-8| 
|5-8-5-5-8-5-5-8-5-8-5-5-8-5-8-8| 
                                    }8X 
|-------------------------------| 
|-------------------------------| 
|-------------------------------| 
|5-7-5-5-7-5-5-7-5-7-5-5-7-5-7-7|      
|5-7-5-5-7-5-5-7-5-7-5-5-7-5-7-7| 
|5-7-5-5-7-5-5-7-5-7-5-5-7-5-7-7| 
 
|---| 
|---| 
|---| 
|5-5| 
|5-5| 
|5-5| 
 
 
Verse 
 
|----| 
|----| 
|----| 
|5-5-| 
|5-5-| 
|5-5-| 
 
 
Chorus 
 
|-------------| 
|-------------| 
|-------------| 
|0---5---3---7|  2X 
|0---5---3---7| 
|0---5---3---7| 
 
 
Post Chorus 
 
|-------------------------------| 
|-------------------------------| 
|-------------------------------| 
|5-8-5-5-8-5-5-8-5-8-5-5-8-5-8-8| 
|5-8-5-5-8-5-5-8-5-8-5-5-8-5-8-8| 
|5-8-5-5-8-5-5-8-5-8-5-5-8-5-8-8| 
                                    }4X 
|-------------------------------| 
|-------------------------------| 
|-------------------------------| 
|5-7-5-5-7-5-5-7-5-7-5-5-7-5-7-7|      
|5-7-5-5-7-5-5-7-5-7-5-5-7-5-7-7| 
|5-7-5-5-7-5-5-7-5-7-5-5-7-5-7-7| 
 
 
Bridge 
 
|-------------------------------| 
|-------------------------------|            
|-------------------------------| 
|-------------------------------| 
|-------------------------------| 
|0-3-0-0-3-0-0-3-0-3-0-0-3-0-3-3| 
                                    }4X (1st Guitar) <- 
|-------------------------------|                     | 
|-------------------------------|                     | 
|-------------------------------|                     | 
|-------------------------------|                     | 
|-------------------------------|                     | 
|0-2-0-0-2-0-0-2-0-2-0-0-2-0-2-2|                 Same Time 
                                                      | 
|-------------------------------|                     | 
|-------------------------------|                     | 
|-------------------------------|                     | 
|X-X-X-X-X-X-X-X-X-X-X-X-X-X-X-X|   }8x (2nd Guitar) <- 
|X-X-X-X-X-X-X-X-X-X-X-X-X-X-X-X| 
|X-X-X-X-X-X-X-X-X-X-X-X-X-X-X-X| 
 
 
Verse 
 
|---------| 
|---------| 
|---------| 
|3-------3| 
|3-------3| 
|3-------3| 
 
 
Chorus 
 
|-------------| 
|-------------| 
|-------------|    
|3---7---5---0|    4X 
|3---7---5---0| 
|3---7---5---0| 
 
 
Outro 
 
|--------------------------------------------| 
|--------------------------------------------| 
|--------------------------------------------| 
|3-3-3-3-3-3--0-3-0-0-3-0-0-2-0-2-0-0-2-0-2-2|   2X 
|3-3-3-3-3-3--0-3-0-0-3-0-0-2-0-2-0-0-2-0-2-2| 
|3-3-3-3-3-3--0-3-0-0-3-0-0-2-0-2-0-0-2-0-2-2| 
 
|-----------------------| 
|-----------------------| 
|-----------------------| 
|3-3-3-3-3-3-5-5-5-5-5-5| 
|3-3-3-3-3-3-5-5-5-5-5-5| 
|3-3-3-3-3-3-5-5-5-5-5-5| 
 
|-------------------------------| 
|-------------------------------| 
|-------------------------------| 
|0-3-0-0-3-0-0-3-0-3-0-0-3-0-3-3| 
|0-3-0-0-3-0-0-3-0-3-0-0-3-0-3-3| 
|0-3-0-0-3-0-0-3-0-3-0-0-3-0-3-3|     
                                      }8X 
|-------------------------------| 
|-------------------------------| 
|-------------------------------| 
|0-2-0-0-2-0-0-2-0-2-0-0-2-0-2-2|      
|0-2-0-0-2-0-0-2-0-2-0-0-2-0-2-2| 
|0-2-0-0-2-0-0-2-0-2-0-0-2-0-2-2| 

	  

Search Paypal
auto scroll beats size up size down change color hide chords drawings
tab show chords e-chords YouTube Clip e-chords hide all tabs e-chords go to top tab