HIM

home > HIM

Stigmata diaboli Tab

HIM

Difficulty: nolevelnolevel

by europeu

tuner correct add songbook print version text version save to e-mail
chordsukulelecavacokeyboardtabbassdrumsharmonicsflute Guitar Pro
chords

Stigmata diaboli

  		- h=hammer-on, p=pull-off 
- /=slide 
- T=ten (10 duh!) 
- a PM^ means to mute the note above 
 
Intro 
e|-----------------------------------------------------------| 
B|-----------------------------------------------------------| 
G|------1-------------1--------------1-------------1---------| 
D|--------1-3~~~--------1---0-1--------1-3~~~--------1-------| 
A|-2222----------2222-----4-----2222----------2222-----4-2-0-| 
E|-0000----------0000-----------0000----------0000-----------| 
PM ^^^^          ^^^^           ^^^^          ^^^^ 
 
Verse 
e|----------------------------------------| 
B|----------------------------------------| 
G|----------------------------------------| 
D|-9/6------------------------------------| 
A|-9/6-6666666-66666666-99999999-44444444-| 
E|-7/4-4444444-44444444-77777777-22222222-| 
PM     ^^^^^^^ ^^^^^^^^ ^^^^^^^^ ^^^^^^^^ 
 
Chorus 
e|----------------------------------| 
B|----------------------------------| 
G|-----------------4/66666--444-333-| 
D|-4/66666-4/66666-4/66666--444-333-| 
A|-4/66666-4/66666-2/44444--222-111-| 
E|-2/44444-2/44444------------------| 
 
Post-Chorus 
e|--------------------------| 
B|----7575---75---75---75---| 
G|----6666---66---66---66---| 
D|-44-4444-4-44-4-44-4-44-4-| 
A|-44------4----4----4----4-| 
E|--------------------------| 
PM ^^      ^    ^    ^    ^ 
 
Verse 2 (verse 1 plus this) 
e|--------------------------------------| 
B|--------------------------------------| 
G|-6/8888888-88888888-88888888-66666666-| 
D|--------------------------------------| 
A|--------------------------------------| 
E|--------------------------------------| 
 
Interlude                   x4                         x2 
e|--------------------------|--------------------------| 
B|----7575---75---75---75---|----9797---97---97---97---| 
G|----6666---66---66---66---|----8888---88---88---88---| 
D|-44-4444-4-44-4-44-4-44-4-|-66-6666-6-66-6-66-6-66-6-| 
A|-44------4----4----4----4-|-66------6----6----6----6-| 
E|--------------------------|--------------------------| 
PM ^^      ^    ^    ^    ^   ^^      ^    ^    ^    ^ 
 
e|--------------------------|-----------------------------| 
B|----T8T8---8T---T8---8T---|-8----T----8----T----T---T---| 
G|----9999---99---99---99---|-9----9----9----9----9---9---| 
D|-77-7777-7-77-7-77-7-77-7-|-7-77-7-77-7-77-7-77-7-7-7-7-| 
A|-77------7----7----7----7-|---77---77---77---77---7---7-| 
E|--------------------------|-----------------------------| 
PM ^^      ^    ^    ^    ^     ^^   ^^   ^^   ^^   ^   ^ 
 

	  

Search Paypal
auto scroll beats size up size down change color hide chords drawings
tab show chords e-chords YouTube Clip e-chords hide all tabs e-chords go to top tab