HIM

home > HIM

Solitary Man Tab

HIM

Difficulty: BeginnerBeginner

by Theteh

tuner correct add songbook print version text version save to e-mail
chordsukulelecavacokeyboardtabbassdrumsharmonicsflute Guitar Pro
chords

Solitary Man

  		intro: 
e ----------------------------------------- 
b ----------------------------------------- 
g ----------------------------------------- 
d ---2------7------------------------------ 
a ---2------7------------------------------ 
e ---0------5------------------------------ 
 
verse: 
e --------------------------------------------------------------------------- 
b --------------------------------------------------------------------------- 
g --------------------------------------------------------------------------- 
d ---2-------7-------5-------2-------5-------7-------5-------7--------------- 
a ---2-------5-------5-------2-------5-------7-------5-------7--------------- 
e ---0-------5-------3-------0-------3-------5-------3-------5--------------- 
 
 
chorus: 
e --------------------------------------------------- 
b ----------------------------------9---------------- 
g -------------5--------------------9---------------- 
d ----5--------5---------5----------7---------------- 
a ----5--------3---------5--------------------------- 
e ----3------------------3--------------------------- 
 
e ----0-------------------- 
b ----0-------------------- 
g ----0-------------------- 
d ----2-------------------- 
a ----2-------------------- 
e ----0-------------------- 
 
 
Outro: 
e ------------------------------------------------- 
b ------------------------------------------------- 
g ------------------------------------------------- 
d ------------------------------------------------- 
a ------------------------------------------------- 
e -----0---0---3---7---5---5------5---5---3---2---- 
 
 
Solo: 
 mais ou menos isso: 
 
e-------------------11-----11------------------------------------------------------------------- 
b-----(bend n hold)>14-----14----------------------------(bend n hold)>6------------------------ 
g----------------------(bend n hold)>14----14---12-------(bend n hold)>6------------------------ 
d----------------------------------------------------14--(bend n hold)>6------------------------ 
a----------------------------------------------------------------------------------------------- 
e----------------------------------------------------------------------------------------------- 
 

	  

Search Paypal
auto scroll beats size up size down change color hide chords drawings
tab show chords e-chords YouTube Clip e-chords hide all tabs e-chords go to top tab