HIM

home > HIM

Our diabolikal rapture Tab

HIM

Difficulty: ExpertExpert

by europeu

tuner correct add songbook print version text version save to e-mail
chordsukulelecavacokeyboardtabbassdrumsharmonicsflute Guitar Pro
chords

Our diabolikal rapture

  		intro 
G:---------------------| 
D:---------------------| 
A:---------------------| 
E:--8-00-7-00-5-00-353-|     play this a fewtimes 
 
Verse 
just play 5 really fast until the bar chord 
G:-----------------------------| 
D:-----------------------------| 
A:-----------------------------| 
E:-555555555555555555555555555- 
 
bar chord 
 
G:-----7------| 
D:-----7------| 
A:---5--------| 
E:------------| 
 
Verse 
samething as the last verse 
 
G:-----------------------------| 
D:-----------------------------| 
A:-----------------------------| 
E:-555555555555555555555555555- 
 
bar chord 
 
G:-----7------| 
D:-----7------| 
A:---5--------| 
E:------------| 
 
then after the bar chord play this 
 
G:-------------| 
D:-------------| 
A:-------------| 
E:-1-1-1-1-1-1-| 
 
intro 
G:---------------------| 
D:---------------------| 
A:---------------------| 
E:--8-00-7-00-5-00-353-|     play this a fewtimes 
 
verse 
 
Bar chord 
 
little part after the rest with just ville and the guitar 
 
G:--------------| 
D:--------------| 
A:-8-88888888---| 
E:--------------| 
 
G:--------------------------| 
D:--------------------------| 
A:-5-5-0-33333--------------| 
E:-------------1-111--33333-| 
  
  
 

	  

Search Paypal
auto scroll beats size up size down change color hide chords drawings
tab show chords e-chords YouTube Clip e-chords hide all tabs e-chords go to top tab