HIM

home > HIM

Killing Loneliness Tab

HIM

Difficulty: ExpertExpert

by diego%3Dp

tuner correct add songbook print version text version save to e-mail
chordsukulelecavacokeyboardtabbassdrumsharmonicsflute Guitar Pro
chords

Killing Loneliness

  		 Him - Killing Loneliness 
 
E|----------------------------------------| 
B|----------4---------3-------------------| 
G|-------------------------------3-5------| Intro 
D|-------5----------3---------------------| 
A|----3----------1------------6-----------| 
E|-------------------------4--------------| 
 
E|-----------------------------------------------------------------| 
B|-----------------------------------------------------------------| 
G|-----------------------------------------------------------------| 
D|-----------------------------------------------------------------| Played 1st 
A|--10-10-10-10--13-13-13--8-8-8-8--5-5-5-6-6-6----5-6-6-6-5-6-5~--|  and 3rd 
E|---8--8--8--8--11-11-11--6-6-6-6--3-3-3-4-4-4----3-4-4-4-3-4-3~--|   time 
 
E|-----------------------------------------------------------------| 
B|-----------------------------------------------------------------| 
G|-----------------------------------------------------------------| 
D|-----------------------------------------------------------------| Played 2nd 
A|--10-10-10-10--13-13-13--8-8-8-8--5-5-5-6-6-6----5-6-6-6-5-6-8~--|  time 
E|---8--8--8--8--11-11-11--6-6-6-6--3-3-3-4-4-4----3-4-4-4-3-4-6~--| 
 
E|------------| 
B|------------| 
G|------------| 
D|--1-0-------| 
A|------------| 
E|------3~----| 
 
E|--------------------------------------------------------| 
B|--------------------------------------------------------| 
G|--------------------------------------------------------| 
D|---.--.--.--.---.--.--.--.--.--.--.---.--.--.--.-.-.-.--| 
A|--10-10-10-10--10-10-10-10-10-10-10--10-10-10--5-5-5-5--| 
E|---8--8--8--8---8--8--8--8--8--8--8---8--8--8--3-3-3-3--| 
 
E|--------------------------------------------------------| 
B|--------------------------------------------------------| 
G|--------------------------------------------------------| 
D|--.-.-.-.-.-.-.--.-.-.--.-.-.-.--.-.-.-.-.-.-.--.-.-.---| 
A|--5-5-5-5-5-5-5--5-5-5--6-6-6-6--6-6-6-6-6-6-6--6-6-6---| 
E|--3-3-3-3-3-3-3--3-3-3--4-4-4-4--4-4-4-4-4-4-4--4-4-4---| 
 
E|--------------------------| 
B|--------------------------| 
G|--------------------------| 
D|--------------------------| 
A|----6---6---6---6----8-8--| 
E|--4---4---4---4---4--6-6--| 
 
E|----------------------------------------------------| 
B|----------------------------------------------------| 
G|----------------------------------------------------| 
D|----------------------------------------------------| 
A|--10-10-10-10-10-10-10-10--13-13-13-13-13-13-13-13--| 
E|---8--8--8--8--8?-8--8--8--11-11-11-11-11-11-11-11--| 
}x2 
E|-----------------------------------------------------| 
B|-----------------------------------------------------| 
G|-----------------------------------------------------| 
D|-----------------------------------------------------| 
A|--18-18-18-18-18-18-18-18-18-18-18-18-18-18-18-18----| 
E|--16-16-16-16-16-16-16-16-16-16-16-16-16-16-16-16----| 
 
E|-----------------------------------------------------| 
B|-----------------------------------------------------| 
G|-----------------------------------------------------| 
D|-----------------------------------------------------| 
A|--10---13---6-6---6-6---8----10---13-----------------| 
E|---8---11---4-4---4-4---6-----8---11?----------------| 
 
 
E|----------------------------------| 
B|----------------------------------| 
G|----------------------------------| 
D|-----.-.-.-.-.-.-.-.-.-.-.-.-.-.--| 
A|--6--6-6-6-6-6-6-6-6-6-6-6-6-6-6--| 
E|--4--4-4-4-4-4-4-4-4-4-4-4-4-4-4--| 

	  

Search Paypal
auto scroll beats size up size down change color hide chords drawings
tab show chords e-chords YouTube Clip e-chords hide all tabs e-chords go to top tab