HIM

home > HIM

Dark light Tab

HIM

Difficulty: ExpertExpert

by europeu

tuner correct add songbook print version text version save to e-mail
chordsukulelecavacokeyboardtabbassdrumsharmonicsflute Guitar Pro
chords

Dark light

  		Intro/Chorus 
 |Guitar 
e|-------------------------------------------------------------------------| 
B|-------------------------------------------------------------------------| 
G|-------------------------------------------------------------------------| 
D|-77777777-77777777-77777777-77777777-44444444-44444444-44444444-44444444-| 
A|-77777777-77777777-77777777-77777777-44444444-44444444-44444444-44444444-| 
E|-55555555-55555555-55555555-55555555-22222222-22222222-22222222-22222222-| 
 |Keyboard 
e|---|-12-9-14-12-10-9-7-5-0-|-12-9-14-12-10-9-7-5-9-| 
B|---|-----------------------|-----------------------| 
G|-9-|-----------------------|-----------------------| 
D|---|-----------------------|-----------------------| 
A|---|-----------------------|-----------------------| 
E|---|-----------------------|-----------------------| 
 
Verse 
 |Guitar(clean) or Keyboard 
e|--------2~-|-4~-| 
B|------2~---|-2~-| 
G|----2~-----|-2~-| 
D|-----------|----| 
A|--0~-------|----| 
E|-----------|----| 
 
Pre-Chorus 
e|------------------------------| 
B|------------------------------| 
G|------------------------------| 
D|-7-7-9~--2-2-7-7777-6~--7-7-9-| 
A|-5-5-7~--0-0-5-5555-4~--5-5-7-| 
E|-5-5-7~--0-0-5-5555-4~--5-5-7-| 
PM               ^^^^ 
 
Interlude 
e|-------------------------------------------------------| 
B|-------------------------------------------------------| 
G|-------------------------------------------------------| 
D|-3~-----0h2p0h2-0h2p0h2p0------0h2p0h2-4h5p4---4h5p4---| 
A|-3~------------------------------------------5-------5-| 
E|-1~--0~~~-----------------0~~~-------------------------| 
 
e|------------------------------|    |-----------------| 
B|------------------------------|    |-----------------| 
G|------------------------------|    |-----------------| 
D|---0h2p0h2-0h2p0h2p0---7-11-9-| x2 |-7-11-9~-7-11-9~-| 
A|-----------------------7-11-9-|    |-5--9-7~-5--9-7~-| 
E|-0~~~------------------5--9-7-|    |-5--9-7~-5--9-7~-| 
 
Final Chorus 
 |Guitar 
e|-------------------------------------------------------------------------| 
B|-------------------------------------------------------------------------| 
G|-------------------------------------------------------------------------| 
D|-99999999-99999999-99999999-99999999-66666666-66666666-66666666-66666666-| 
A|-99999999-99999999-99999999-99999999-66666666-66666666-66666666-66666666-| 
E|-77777777-77777777-77777777-77777777-44444444-44444444-44444444-44444444-| 
 |Keyboard 
e|----|-14-11-16-14-12-11-9-7----|-14-11-16-14-12-11-9-7-11-| 
B|----|--------------------------|--------------------------| 
G|-11-|-----------------------11-|--------------------------| 
D|----|--------------------------|--------------------------| 
A|----|--------------------------|--------------------------| 
E|----|--------------------------|--------------------------| 
 
 
 
 
 
 

	  

Search Paypal
auto scroll beats size up size down change color hide chords drawings
tab show chords e-chords YouTube Clip e-chords hide all tabs e-chords go to top tab