Hilltop Hoods

home > Hilltop Hoods

Breathe Tab

Hilltop Hoods

Difficulty: nolevelnolevel

by hebealmeida

tuner correct add songbook print version text version save to e-mail
chordsukulelecavacokeyboardtabbassdrumsharmonicsflute Guitar Pro
chords

Breathe

  		
Intro 

e|--------------------------------------------------------------| 
B|----------------9-12-9----------------------------------------| 
G|-----------8-------------------------10-----------10----------| 
D|------9-11---9---------9-11-11-----9-------9----9-------------| 
A|---11---------------------------11------11---11---------------| 
E|--------------------------------------------------------------| 

verse 1 

e|--------------------------------------------------------------| 
B|----------------9-12-9----------------------------------------| 
G|-----------8-------------------------10-----------10----------| 
D|------9-11---9---------9-11-11-----9-------9----9-------------| 
A|---11---------------------------11------11---11---------------| 
E|--------------------------------------------------------------| 
 


Chorus 

e|--------------------------------------------------------------| 
B|----------------9-12-9----------------------------------------| 
G|-----------8-------------------------10-----------10----------| 
D|------9-11---9---------9-11-11-----9-------9----9-------------| 
A|---11---------------------------11------11---11---------------| 
E|--------------------------------------------------------------| 


verse 2 

e|--------------------------------------------------------------| 
B|----------------9-12-9----------------------------------------| 
G|-----------8-------------------------10-----------10----------| 
D|------9-11---9---------9-11-11-----9-------9----9-------------| 
A|---11---------------------------11------11---11---------------| 
E|--------------------------------------------------------------| 



Chorus 

e|--------------------------------------------------------------| 
B|----------------9-12-9----------------------------------------| 
G|-----------8-------------------------10-----------10----------| 
D|------9-11---9---------9-11-11-----9-------9----9-------------| 
A|---11---------------------------11------11---11---------------| 
E|--------------------------------------------------------------| 
 
	  

Search Paypal
auto scroll beats size up size down change color hide chords drawings
tab show chords e-chords YouTube Clip e-chords hide all tabs e-chords go to top tab