Hillsong

home > Hillsong

Revolution Tab

Hillsong

Difficulty: IntermediateIntermediate

by l1lkrnboy

tuner correct add songbook print version text version save to e-mail
chordsukulelecavacokeyboardtabbassdrumsharmonicsflute Guitar Pro
chords

Revolution

Year: 2006 - Album: United We Stand

  		Tabs: 
Introduction 
--------------------------------- 
-14-14-14-14----12-12-12-12------ 
-11-11-11-11----11-11-11-11------ 
--------------------------------- 
--------------------------------- 
--------------------------------- 
D# 

--------------------------------- 
-11-11-11-11---12-12-12-12------- 
-11-11-11-11---11-11-11-11------- 
--------------------------------- 
--------------------------------- 
--------------------------------- 

--------------------------------- 
-12-12-12-12---11-11-11-11------- 
-11-11-11-11---11-11-11-11------- 
--------------------------------- 
--------------------------------- 
--------------------------------- 
F# 

--------------------------------- 
-9--9--9--9-----12-12-12-12------ 
-10-10-10-10----10-10-10-10------ 
--------------------------------- 
--------------------------------- 
--------------------------------- 
C# . . . . Bmb5/D 

Verse (see below) 

Chorus 
F# B G#m D# 
F# B G#m - 

Instrumental 
--------------------------------------------- 
-----------14-14-14-14-----------12-12-12-12- 
------11-11-----------------11-11------------ 
-13-13-----------------13-13----------------- 
--------------------------------------------- 
--------------------------------------------- 
D# 

--------------------------------------------- 
-----------11-11-11-11-----------12-12-12-12- 
------11-11-----------------11-11------------ 
-13-13-----------------13-13----------------- 
--------------------------------------------- 
--------------------------------------------- 

--------------------------------------------- 
-----------12-12-12-12-----------11-11-11-11- 
------11-11-----------------11-11------------ 
-11-11-----------------11-11----------------- 
--------------------------------------------- 
--------------------------------------------- 
F# 

----------------------------------------- 
-----------9-9-9-9-----------12-12-12-12- 
------10-10-------------10-10------------ 
-11-11-------------12-12----------------- 
----------------------------------------- 
----------------------------------------- 
C# . . . . .Bmb5/D 

Bridge 
-------------------------------- 
-------------------------------- 
-------6-6-6-6-------6-6-6-6---- 
----4-4-----------4-4----------- 
-6-6-----------6-6-------------- 
-------------------------------- 
D# 

-------------------------------- 
-------------------------------- 
-------6-6-6-6--------6-6-6-6--- 
----4-4------------4-4---------- 
-2-2-----------2-2-------------- 
-------------------------------- 
Badd9 

-------------------------------- 
-------------------------------- 
-------6-6-6-6-------6-6-6-6---- 
----4-4-----------4-4----------- 
-------------------------------- 
-6-6-----------6-6-------------- 
F#/A# 

-------------------------------- 
--------6-6--------------------- 
----6-6-----6-6---------7-7----- 
--------------------8-8-----8-8- 
-4-4------------5-5------------- 
-------------------------------- 
C# . . .A#/D 

Repeat the above twice, then play the following to return to the Chorus: 

--------------------------------- 
-------------4-4-------------4-4- 
---------4-4-------------4-4----- 
-4-4-6-6---------4-4-6-6--------- (x2) 
--------------------------------- 
--------------------------------- 



D# 
One generation, living salvation 
. . . . F# 
Here we go 
D# 
Seeing revival we will defy all that holds us back  
. . F# 
from You 

Tabs: use power chords for the D# chords, with LH percussive muting in between, & the following tabs for the F# chords: 

----------------- 
----------------- 
-6--8--10--11---- 
----------------- (x2) 
-4--6--8---9----- 
-----------------  



	  

Full key step upFull key step up
Half key step upHalf key step up
Half key step downHalf key step down
Full key step downFull key step down
Search Paypal
auto scroll beats size up size down change color hide chords drawings
tab show chords e-chords YouTube Clip e-chords hide all tabs e-chords go to top tab