Hill Valleys

Filme B

Hill Valleys

tabs

save to print version add songbook text version e-mail correct tuner
chordsukulelecavacokeyboardtabbassdrumsharmonicaflute Guitar Pro
close

there isn't a video lesson for this song

chords

Filme B

	  		 
Intro : fiff 1 (2x) 
 
     riff 1   Quanto mais longe eu estiver de você              
              Mais fácil vai ser esquecer 
              Quanto mais o tempo esfriar 
              Mais esperarei pra lágrima secar 
 
     riff 1   Seu rosto, seus olhos, sua boca           
              Me deixam sofrer pelo bem que me fazeeem (2x)     
 
                 riff 2 (1x) 
   
     fiff 1   Se eu for sofrer desço pra sua rua 
              Entro no seu prédio e vou direto pro terceiro andar (2x) 
     
     riff 3   Esqueço tudo que eu pensei 
              Faço tudo que eu jurei 
              Que nunca mais faria 
              E só vou parar 
              Quando você disser que é tudo ilusão 
              Só um filme B anos 80 feito pra televisão 
 
                 bridge 
 
     fiff 1   Se eu for sofrer desço pra sua rua 
              Entro no seu prédio e vou direto pro terceiro andar (2x)           
 
                 solo (base: riff 1) 
     
     riff 1   Seu rosto, seus olhos, sua boca           
              Me deixam sofrer pelo bem que me fazeeem (2x) 
 
                 riff 2 (1x)  
               
     fiff 1   Se eu for sofrer desço pra sua rua 
              Entro no seu prédio e vou direto pro terceiro andar (4x)  
 
                 final 
 
--------------------------------------------------------------------------------  
 
          E |---------------------------------------------------------------| 
          B |---------------------------------------------------------3-----| 
  riff 1  G |-----0-----0---------0-----0---------0-----0---------0-------0-| 
          D |---0-----0-----0---0-----0---0-----0-----0-----0---0-------0---| 
          A |-2-----2-----2---3-----3-------3-0-----0-----0---2-----2-------| 
          E |---------------------------------------------------------------| 
 
          E |---------------------------------------------------------------| 
          B |---------------------------------3-----3-----3---2-----3-----0-| 
  riff 2  G |-----0-----0---------0-----0---------0-----0---------0-----0---| 
          D |---0-----0-----0---0-----0---0-----0-----0-----0---0-----0-----| 
          A |-2-----2-----2---3-----3-------3-2-----2-----2---2-----2-----2-| 
          E |---------------------------------------------------------------| 
 
          E |---------------------------------------------------------------| 
          B |---------------------------------------------------------------| 
  riff 3  G |-----0-----0---------0-----0---------0-----0---------0-----0---| 
          D |---0-----0-----0---0-----0-----0---0-----0-----0---0-----0-----| 
          A |-3-----3-----3---2-----2-----2---0-----0-----0---0-----0-----2-| 
          E |---------------------------------------------------------------| 
 
          E |--------------------------------| 
          B |--------------------------------| 
  bridge  G |-----0-----0---------0-----0----| 
          D |---0-----0-----0---0-----0-----0| 
          A |-2-----2-----2---3-----3-----3--| 
          E |--------------------------------| 
 
          E |-7/5--------------------------------------------------------------/ 
  solo    B |-----8-6-5/4-5/4-5/4-5-5/8-5-5/7-7-5/7-7-------------12-9/11-11---/ 
          G |-----------------------------------------7/9-9-7/9-9------------8-/ 
          D |------------------------------------------------------------------/ 
          A |------------------------------------------------------------------/ 
 
          E /----------------------------------------| 
          B /-9/11-11-8-9/11-11-9-9/11-11------------| 
          G /----------------------------------------| 
          D /----------------------------------------| 
          A /-----------------------------8b9-8/9-8~-| 
 
                                                                              G 
          E |---------------------------------------------------------------| 
          B |-----------------------------3-------------------------3-------| 
  final   G |-----0-----0-----0-----0-----------0-----0-----0-----0---0-----| 
          D |---0-----0-----0-----0-----0-----0-----0-----0-----0-------0---| 
          A |-2-----2-----2-----2-----2-----3-----3-----3-----3-----------3-| 
          E |---------------------------------------------------------------| 
 
_______________________________________________________ 
Contribuição: Ricardo Santos {turtle}([email protected]) 

		  

See also:

tabs Fistt - Minduim tabs Dance of Days - Instantes tabs Fistt - A turma tabs Nilson Chaves - Sabor acai tabs Fenix TX - Ben tabs Fenix TX - Abba Zabba
e-chords

Other versions:

tabs Hill Valleys - Filme B
auto scroll beats size up size down change color hide chords drawings
tab show chords e-chords YouTube Clip e-chords hide all tabs e-chords go to top tab

share