Hellyeah

home > Hellyeah

I Dont Care Anymore Tab

Hellyeah

Difficulty: nolevelnolevel

by edsooliveira

tuner correct add songbook print version text version save to e-mail
chordsukulelecavacokeyboardtabbassdrumsharmonicsflute Guitar Pro
chords

I Dont Care Anymore

  		Intro (Main Riff) 

D|---------------------------------|---------------------------------|---------------------------------| 
A|---------------------------------|---------------------------------|---------------------------------| 
F|---------------------------------|---------------------------------|---------------------------------| 
C|---------------------------------|---------------------------------|---------------------------3-5-6-| 
G|---------------------------------|---------------------------------|-----3h5/6-5-----3h5/6-----3-5-6-| 
C|---------------------------------|---------------------------------|-0-0---------0-0-------0-0-3-5-6-| 
                                                                       . .         . .       . . 

D|---------------------------------|---------------------------------|---------------------------------| 
A|---------------------------------|---------------------------------|---------------------------------| 
F|---------------------------------|---------------------------------|---------------------------------| 
C|---------------------------3-5-6-|---------------------------3-5-6-|---------------------------3-5-6-| 
G|-----3h5/6-5-----3h5/6-----3-5-6-|-----3h5/6-5-----3h5/6-----3-5-6-|-----3h5/6-5-----3h5/6-----3-5-6-| 
C|-0-0---------0-0-------0-0-3-5-6-|-0-0---------0-0-------0-0-3-5-6-|-0-0---------0-0-------0-0-3-5-6-| 
   . .         . .       . .         . .         . .       . .         . .         . .       . .  

D|---------------------------------|---------------------------------|---------------------------------| 
A|---------------------------------|---------------------------------|---------------------------------| 
F|---------------------------------|---------------------------------|---------------------------------| 
C|-3--------------0----------------|-x-0------------x-0--------------|---------------------------------| 
G|-3--------------0----------------|-x-0------------x-0--------------|---------------------------------| 
C|-3--------------0----------------|-x-0------------x-0--------------|---------------------------------| 


(Pinch harmonic on 12 fret sounds during pick scrape) 
D|-12*~~~~~~~~~~~~~~~~~~~~~~~~~~~~-|---------------------------------| 
A|---------------------------------|---------------------------------| 
F|---------------------------------|---------------------------------| 
C|---------------------------------|---------------------------------| 
G|---------------------------------|-Pick_scrape_down----------------| 
C|---------------------------------|-Pick_scrape_down----------------| 

verse 1 

Guitar 1  
(Sounds like a lot of Chorus and reminds synth)  
(Playing (x2, x2) before guitar 2 enters, and continues to sound until main riff starts, but as overdriven 
rhythm guitar)  
D|---------------------------------------------|--------------------------------| 
A|---------------------------------------------|--------------------------------| 
F|-14------------------12----------------------|-10---------------7-------------| 
C|---------------------------------------------|--------------------------------| 
G|---12-12-12-12-12-12----10-10-10-10-10-10-10-|----8-8-8-8-8-8-8---5-5-5-5-5-5-| 
C|---------------------------------------------|--------------------------------| 

D|----------------------------------|---------------------------------| 
A|----------------------------------|---------------------------------| 
F|-7------------7-------------------|---------------------------------| (x2) 
C|----------------------------------|---------------------------------| 
G|--5-5-5-5-5-5---5-5-5-5-5-5-5-5-5-|-5-5-5-5-5-5-5-5-5-5-5-5-5-5-5-5-| 
C|----------------------------------|---------------------------------| 

D|---------------------------------|---------------------------------| 
A|---------------------------------|---------------------------------| 
F|---------------------------------|---------------------------------| (x2)  
C|---5-5-5-5-5-5-5-5-5-5-5-5-5-5-5-|---------------------------------| 
G|---------------------------------|---5-5-5-5-5-5-5-5-5-5-5-5-5-5-5-| 
C|-5-------------------------------|-0-------------------------------| 

(Guitar 1 turns to overdrive rhythm guitar) 
D|------------------|----------------|----------------|------------------|----------------|----------------| 
A|------------------|----------------|----------------|------------------|----------------|----------------| 
F|------------------|----------------|----------------|------------------|----------------|----------------| 
C|------------------|----------------|----------------|------------------|----------------|----------------| 
G|------------------|----------------|----------------|------------------|----------------|----------------| 
C|-7----5----3----0-|---x-0----x-0---|---x-0----x-0---|-7----5----3----0-|---x-0----x-0---|---x-0----x-0---| 

Guitar 2 (Starts after (x2, x2) Guitar 2 is always solo) 
D|------------------|---------------------------------|-----------------------------------------| 
A|------------------|---------------------------------|-17-15----15-17b---17b---17-15----15-15~-| 
F|------------------|---------------------------------|-------17----------------------17--------| 
C|------------------|-----------------15--12------12~-|-----------------------------------------| 
G|------------------|-------------------------15------|-----------------------------------------| 
C|------------------|---------------------------------|-----------------------------------------| 

D|-------------------------------|------------------------------|-------------------------------| 
A|-------------------------------|----------------20b--20b--20~-|-20b-20b-20b-20*---------------| 
F|-------------------------------|------------------------------|-------------------------------| 
C|-------------------------------|------------------------------|-------------------------------| 
G|-------------------------------|------------------------------|-------------------------------| 
C|-------------------------------|------------------------------|-------------------------------| 

Guitar 1 
D|---------------------------------|---------------------------------| 
A|---------------------------------|---------------------------------| 
F|---------------------------------|---------------------------------| 
C|---------------------------------|---------------------------------| 
G|---------------------------------|---------------------------------| 
C|-5---------------0---------------|-5---------------0---------------| 

Guitar 2 
D|---------------------------------------|-----------------------------------------------| 
A|---------------------------------------|-----------------------------------------------| 
F|------------------12b--12b--12b--12b13-|-----------------------------------------------| 
C|---------------------------------------|-------------------14--15--14--15----------12~-| 
G|---------------------------------------|-------------------------------------15--------| 
C|---------------------------------------|-----------------------------------------------| 

Guitar 1 
D|---------------------------------|---------------------------------| 
A|---------------------------------|---------------------------------| 
F|---------------------------------|---------------------------------| 
C|---------------------------------|-3-------------------------------| 
G|---------------------------------|-3-------------------------------| 
C|-5---------------0---------------|-3-------------------6----5----3-| 
                                                         .    .    . 

Chorus (Main riff, Guitar 1) 
D|---------------------------------|---------------------------------|---------------------------------| 
A|---------------------------------|---------------------------------|---------------------------------| 
F|---------------------------------|---------------------------------|---------------------------------| 
C|---------------------------3-5-6-|---------------------------3-5-6-|---------------------------3-5-6-| 
G|-----3h5/6-5-----3h5/6-----3-5-6-|-----3h5/6-5-----3h5/6-----3-5-6-|-----3h5/6-5-----3h5/6-----3-5-6-| 
C|-0-0---------0-0-------0-0-3-5-6-|-0-0---------0-0-------0-0-3-5-6-|-0-0---------0-0-------0-0-3-5-6-| 
   . .         . .       . .         . .         . .       . .         . .         . .       . .  

D|---------------------------------| 
A|---------------------------------| 
F|---------------------------------| 
C|---------------------------3-5-6-| 
G|-----3h5/6-5-----3h5/6-----3-5-6-| 
C|-0-0---------0-0-------0-0-3-5-6-| 
   . .         . .       . .  

("Well i don't care now what you saaaaay...") 
D|---------------------------------------------------|---------------------------------------------| 
A|---------------------------------------------------|---------------------------------------------| 
F|---------------------------------------------------|---------------------------------------------| 
C|-3-------------------------------------------------|-0-------------------------------------------| 
G|-3--3--3--3--3--3--3--3--3--3--3--3--3--3----------|-0--0--0--0--0--0--0--0--0--0--7\6\5\4\3\2\1-| 
C|-3--3--3--3--3--3--3--3--3--3--3--3--3--3--6--5--3-|-0--0--0--0--0--0--0--0--0--0--7\6\5\4\3\2\1-| 
      .  .  .  .  .  .  .  .  .  .  .  .  .               .  .  .  .  .  .  .  .  . 

D|---------------------------------------------------|-----------------------------------------| 
D|---------------------------------------------------|-----------------------------------------| 
F|---------------------------------------------------|-----------------------------------------| (x2) 
C|-3-------------------------------------------------|-5---------------------------------------| 
G|-3--3--3--3--3--3--3--3--3--3--3--3--3--3----------|-5--5--5--5--5--5--6---5---3---6---5---3-| 
C|-3--3--3--3--3--3--3--3--3--3--3--3--3--3--3--5--6-|-5--5--5--5--5--5--6---5---3---6---5---3-| 
      .  .  .  .  .  .  .  .  .  .  .  .  .               .  .  .  .  .  

(Main riff and starts guitar 2) 
D|---------------------------------|---------------------------------|---------------------------------| 
A|---------------------------------|---------------------------------|---------------------------------| 
F|---------------------------------|---------------------------------|---------------------------------| 
C|---------------------------3-5-6-|---------------------------3-5-6-|---------------------------3-5-6-| 
G|-----3h5/6-5-----3h5/6-----3-5-6-|-----3h5/6-5-----3h5/6-----3-5-6-|-----3h5/6-5-----3h5/6-----3-5-6-| 
C|-0-0---------0-0-------0-0-3-5-6-|-0-0---------0-0-------0-0-3-5-6-|-0-0---------0-0-------0-0-3-5-6-| 
   . .         . .       . .         . .         . .       . .         . .         . .       . .  

D|---------------------------------| 
A|---------------------------------| 
F|---------------------------------| 
C|---------------------------3-5-6-| 
G|-----3h5/6-5-----3h5/6-----3-5-6-| 
C|-0-0---------0-0-------0-0-3-5-6-| 
   . .         . .       . .  

Guitar 2(Use whammy bar to lower note, during whole tact) 
D|-------------------------------| 
A|-------------------------------| 
F|-------------------------------| (x4) 
C|-12\\\\\\\\\\\\\\\\\\\\\\\\\\\-| 
G|-------------------------------| 
C|-------------------------------| 


verse 2 

Guitar 1 
D|---------------------|---------------------|-------------|-------------| 
A|---------------------|---------------------|-------------|-------------| 
F|---------------------|---------------------|-------------|-------------| 
C|-6----5-------3----0-|-6----5-------3----0-|-x-3-----x-0-|-x-3-----x-0-| 
G|-6----5-------3----0-|-6----5-------3----0-|-x-3-----x-0-|-x-3-----x-0-| 
C|-6----5-------3----0-|-6----5-------3----0-|-x-3-----x-0-|-x-3-----x-0-| 

(Starts Guitar 2) 
D|-----------------------------------|-----------------------------------|------------------------------| 
A|-----------------------------------|-----------------------------------|------------------------------| 
F|-----------------------------------|-----------------------------------|------------------------------| 
C|-5----------------0----------------|-5----------------0----------------|-3----------------------------| 
G|-5----------------0----------------|-5----------------0----------------|-3----------------------------| 
C|-5----------------0----------------|-5----------------0----------------|-3----------------6---5---3---| 

Guitar 2 
D|---------------------------------|---------------------------------------|----------------------------| 
A|----18--15~----------------------|-------------------20b22r20----18--17~-|----------------------------| 
F|---------------------14h15h14~---|---------------------------------------|----------------------------| 
C|---------------------------------|---------------------------------------|----------------------------| 
C|---------------------------------|---------------------------------------|----------------------------| 
C|---------------------------------|---------------------------------------|----------------------------| 

Chorus 2 + Solo 

Guitar 1 
(Main riff while Guitar 2 playing solo) 
D|---------------------------------|---------------------------------|---------------------------------| 
A|---------------------------------|---------------------------------|---------------------------------| 
F|---------------------------------|---------------------------------|---------------------------------| 
C|---------------------------3-5-6-|---------------------------3-5-6-|---------------------------3-5-6-| 
G|-----3h5/6-5-----3h5/6-----3-5-6-|-----3h5/6-5-----3h5/6-----3-5-6-|-----3h5/6-5-----3h5/6-----3-5-6-| 
C|-0-0---------0-0-------0-0-3-5-6-|-0-0---------0-0-------0-0-3-5-6-|-0-0---------0-0-------0-0-3-5-6-| 
   . .         . .       . .         . .         . .       . .         . .         . .       . .  

D|---------------------------------| 
A|---------------------------------| 
F|---------------------------------| 
C|---------------------------3-5-6-| 
G|-----3h5/6-5-----3h5/6-----3-5-6-| 
C|-0-0---------0-0-------0-0-3-5-6-| 
   . .         . .       . .  

Guitar 2 
D|-----------------|---------------------|----------------|--------------------| 
A|-----------------|---------------------|-18--15~--------|--------20b22---20~-| 
F|-----------------|---------------------|----------------|--------------------| 
C|-15--12------12~-|----15--12------12b~-|----------------|--------------------| 
G|---------15------|------------15-------|----------------|--------------------| 
C|-----------------|---------------------|----------------|--------------------| 

Guitar 1 (A little quieter) 
D|---------------------------------|---------------------------------|---------------------------------| 
A|---------------------------------|---------------------------------|---------------------------------| 
F|---------------------------------|---------------------------------|---------------------------------| 
C|---------------------------3-5-6-|---------------------------3-5-6-|---------------------------3-5-6-| 
G|-----3h5/6-5-----3h5/6-----3-5-6-|-----3h5/6-5-----3h5/6-----3-5-6-|-----3h5/6-5-----3h5/6-----3-5-6-| 
C|-0-0---------0-0-------0-0-3-5-6-|-0-0---------0-0-------0-0-3-5-6-|-0-0---------0-0-------0-0-3-5-6-| 
   . .         . .       . .         . .         . .       . .         . .         . .       . .  

D|---------------------------------|---------------------------------|---------------------------------| 
A|---------------------------------|---------------------------------|---------------------------------| 
F|---------------------------------|---------------------------------|---------------------------------| 
C|---------------------------3-5-6-|---------------------------3-5-6-|---------------------------3-5-6-| 
G|-----3h5/6-5-----3h5/6-----3-5-6-|-----3h5/6-5-----3h5/6-----3-5-6-|-----3h5/6-5-----3h5/6-----3-5-6-| 
C|-0-0---------0-0-------0-0-3-5-6-|-0-0---------0-0-------0-0-3-5-6-|-0-0---------0-0-------0-0-3-5-6-| 
   . .         . .       . .         . .         . .       . .         . .         . .       . .  

Guitar 2 
(12 fret in first line playing with whammy bar like 4 times whammy up and 1 last time whammy full down) 
D|---------------------------------|----17---------------------------|---------------------------------| 
A|----20-19-17-19-20-19-17~--------|---------20---18---20---18-------|---------------------------------| 
F|---------------------------------|----------------------------19---|--12-12//-12//-12//-12//-12\\\\\-| 
C|---------------------------------|---------------------------------|---------------------------------| 
G|---------------------------------|---------------------------------|---------------------------------| 
C|---------------------------------|---------------------------------|---------------------------------| 

D|---------------------------------|-------------------------------------------|-------------------------| 
A|---------------------------------|-------------------------------------------|-20b-20b-20b-20b-20b-20b-| 
F|---------------------------------|-------------------12--------------15--14~-|-------------------------| 
C|---------------------------------|-12~---12--15--14------15--14--15----------|-------------------------| 
G|------10--12--10--8--10--8--5~---|-------------------------------------------|-------------------------| 
C|---------------------------------|-------------------------------------------|-------------------------| 

Outro 

Guitar 1 
D|---------------------------------|---------------------------------|---------------------------------| 
A|---------------------------------|---------------------------------|---------------------------------| 
F|---------------------------------|---------------------------------|---------------------------------| 
C|---------------------------3-5-6-|---------------------------3-5-6-|---------------------------3-5-6-| 
G|-----3h5/6-5-----3h5/6-----3-5-6-|-----3h5/6-5-----3h5/6-----3-5-6-|-----3h5/6-5-----3h5/6-----3-5-6-| 
C|-0-0---------0-0-------0-0-3-5-6-|-0-0---------0-0-------0-0-3-5-6-|-0-0---------0-0-------0-0-3-5-6-| 
   . .         . .       . .         . .         . .       . .         . .         . .       . .  

D|---------------------------------| 
A|---------------------------------| (x4) 
F|---------------------------------| 
C|---------------------------3-5-6-| 
G|-----3h5/6-5-----3h5/6-----3-5-6-| 
C|-0-0---------0-0-------0-0-3-5-6-| 
   . .         . .       . . 

(Now starts guitar 2) 
D|---------------------------------|---------------------------------|---------------------------------| 
A|---------------------------------|---------------------------------|---------------------------------| 
F|---------------------------------|---------------------------------|---------------------------------| 
C|---------------------------3-5-6-|---------------------------3-5-6-|---------------------------3-5-6-| 
G|-----3h5/6-5-----3h5/6-----3-5-6-|-----3h5/6-5-----3h5/6-----3-5-6-|-----3h5/6-5-----3h5/6-----3-5-6-| 
C|-0-0---------0-0-------0-0-3-5-6-|-0-0---------0-0-------0-0-3-5-6-|-0-0---------0-0-------0-0-3-5-6-| 
   . .         . .       . .         . .         . .       . .         . .         . .       . .  


D|---------------------------------| 
A|---------------------------------| (x3) 
F|---------------------------------| 
C|---------------------------3-5-6-| 
G|-----3h5/6-5-----3h5/6-----3-5-6-| 
C|-0-0---------0-0-------0-0-3-5-6-| 
   . .         . .       . . 

Guitar 2(Use whammy bar to lower note, during whole tact) 
D|-------------------------------| 
A|-------------------------------| 
F|-------------------------------| (x3) 
C|-12\\\\\\\\\\\\\\\\\\\\\\\\\\\-| 
G|-12\\\\\\\\\\\\\\\\\\\\\\\\\\\-| 
C|-------------------------------| 

Guitar 1 
D|-------------------------------| 
A|-------------------------------| 
F|-------------------------------| 
C|-3-3-----------0-0-------------| 
G|-3-3-----------0-0-------------| 
C|-3-3-----------0-0-------------| 

I hope this helped. If it did please don't forget to leave rate or comment. Whole song learned only by ear,  
and this one is too difficult to me. If i forgot something let me know. 

************************************ 

| h  Hammer-on 
| /  Slide up 
 or Whammy up 
| .  Palm mute 
| x  Dead note 
| b  Bend 
| ~  Vibrato 
| *  Pinch harmonic 
 or Natural harmonic 
| \  Slide down 
 or Whammy down 
| r  Bend release 


************************************ 
	  

Full key step upFull key step up
Half key step upHalf key step up
Half key step downHalf key step down
Full key step downFull key step down
Search Paypal
auto scroll beats size up size down change color hide chords drawings
tab show chords e-chords YouTube Clip e-chords hide all tabs e-chords go to top tab