Helloween

home > Helloween

We Burn Tab

Helloween

Difficulty: nolevelnolevel

by Mustaine

tuner correct add songbook print version text version save to e-mail
chordsukulelecavacokeyboardtabbassdrumsharmonicsflute Guitar Pro
chords

We Burn

Year: 1996 - Album: The Time of the Oath

  		 
	We Burn 
	Helloween - The Time Of The Oath 
	written by Andi Deris 
	 
	 
	Intro/Chorus 
 
	Leadguitar: 
 
	e--------------------------------------------------------------- 
	b--------------------------------------------------------------- 
	g--------------------------------------------------------------- 
	d--------------------------------------------------------------- 
	a----12p0-0-10p0-0-12p0-0-10p0-0-12p0-10p0-12p0-10p0-0---------- 
	E--------------------------------------------------------------- 
 
	e--------------------------------------------------------------- 
	b--------------------------------------------------------------- 
	g--------------------------------------------------------------- 
	d-------10-13-12~----------------------------------------------- 
	a----12--------------------------------------------------------- 
	E--------------------------------------------------------------- 
 
 
	Rhythm guitar - figure out the timing yourself, it's not that hard :P 
		 
	e--------------------------------------------------------------- 
	b--------------------------------------------------------------- 
	g--------------------------------------------------------------- 
	d--------------10------7---------------------------------------- 
	a-----7--------8-------5------5--------------------------------- 
	E-----5-----------------------3--------------------------------- 
 
	On the last time before the verse: 
	 
	d--------------10------7---------------------------------------- 
	a-----7--------8-------5------5--------------------------------- 
	E-----5-----------------------3--333333------------------------- 
					 ......	 
		 
 
	Verse: 
 
	e--------------------------------------------------------------- 
	b--------------------------------------------------------------- 
	g--------------------------------------------------------------- 
	d---2--------------------------------------------10------------- 
	a---00000...-------------------------------------8-------------- 
	E--------------------------------------------------------------- 
 
	Climb down my pile and again to the beat of my heart 
 
	e--------------------------------------------------------------- 
	b--------------------------------------------------------------- 
	g--------------------------------------------------------------- 
	d-----------7---9----------------------------------------------- 
	a-------5---5---7---777777-------------------------------------- 
	E-------3------------------------------------------------------- 
			    ...... 
	You're so exciting 	 
 
 
 
	Pre-Chorus: 
 
	Rhythm guitar: 
 
	e--------------------------------------------------------------- 
	b--------------------------------------------------------------- 
	g--------------------------------------------------------------- 
	d---------------2--------5------------------9------------------- 
	a---5-----------0--------3------------------7------------------- 
	E---3----------------------------------------------------------- 
 
	Higher, much higher /       I'm caught in fire  
 
	e--------------------------------------------------------------- 
	b--------------------------------------------------------------- 
	g--------------------------------------------------------------- 
	d---------------2-----5------------------------------555---55-7~ 
	a---5-----------0-----3--------------7778887799977799---999-----				E---3----------------------------------------------------------- 
	 
	Closer, much closer  /   Close to the core! 
 
	I'm not quite sure about this thing in the end of the pre-Chorus... the sound of this album is not that great, so it's really hard to hear. 
 
	Leadguitar: 
	 
	e-------7-----8-----12----15----12------------------------------ 
	b--------------------------------------------------------------- 
	g-----4----5-----9---------------------------------------------- 
	d--------------------------------------------------------------- 
	a--------------------------------------------------------------- 
	E--------------------------------------------------------------- 
	 
	To find out the timing, just follow the chord progression. 
	Then on the second time: 
 
	e-------7-----8-----12----8----10b12~~-------------------------- 
	b--------------------------------------------------------------- 
	g-----4----5-----9---------------------------------------------- 
	d--------------------------------------------------------------- 
	a--------------------------------------------------------------- 
	E--------------------------------------------------------------- 
	 
	The Chorus is identical to the intro. 
 
	1st solo rhythm: 
 
	e--------------------------------------------------------------- 
	b--------------------------------------------------------------- 
	g--------------------------------------------------------------- 
	d--------------------7------------------------------------------ 
	a----9-----------7---5---7-------------------------------------- 
	E----7-----------5-------5-------------------------------------- 
 
 
	all right, now the solo... in the first one is almost impossible to be accurate.  
 
	Start with this bend: 
 
	e--------------------------------------------------------------- 
	b------17b19~~-------------------------------------------------- 
	g--------------------------------------------------------------- 
	d--------------------------------------------------------------- 
	a--------------------------------------------------------------- 
	E--------------------------------------------------------------- 
 
	Then he does some improvisation or something, using D major pentatonic. To come closer to what he does, use hammer-ons and blues notes. It then ends with this bend: 
 
	e--------------------------------------------------------------- 
	b-------15b17~-------------------------------------------------- 
	g--------------------------------------------------------------- 
	d--------------------------------------------------------------- 
	a--------------------------------------------------------------- 
	E--------------------------------------------------------------- 
 
	2nd solo (both guitars) 
	 
	 
	Guitar 1:	 
 
	e--------------------------------------------------------------- 
	b---12p0-0-10p0-0-13p0-0-12p0-0-10p0-12p0---------------------- 
	g--------------------------------------------------------------- 
	d--------------------------------------------------------------- 
	a--------------------------------------------------------------- 
	E--------------------------------------------------------------- 
 
	e--------------------------------------------------------------- 
	b---8p0-0-7p0-0-10p0-0-8p-0-7p0-8p0----------------------------- 
	g--------------------------------------------------------------- 
	d--------------------------------------------------------------- 
	a--------------------------------------------------------------- 
	E--------------------------------------------------------------- 
	 
	e--------------------------------------------------------------- 
	b---3p0-0-7p0-0-3p0-5p0-0-8p-0-8p0-3p0-0-7p0-0-3p0-0-5p0-------- 
	g--------------------------------------------------------------- 
	d--------------------------------------------------------------- 
	a--------------------------------------------------------------- 
	E--------------------------------------------------------------- 
 
	e--------10-12-------------------------------------------------- 
	b---0-0-0------------------------------------------------------- 
	g--------------------------------------------------------------- 
	d--------------------------------------------------------------- 
	a--------------------------------------------------------------- 
	E--------------------------------------------------------------- 
 
	Second guitar and third solo to come soon.	 
 

	  

Full key step upFull key step up
Half key step upHalf key step up
Half key step downHalf key step down
Full key step downFull key step down
Search Paypal
auto scroll beats size up size down change color hide chords drawings
tab show chords e-chords YouTube Clip e-chords hide all tabs e-chords go to top tab