Helloween

home > Helloween

Walls of Jericho Tab

Helloween

Difficulty: nolevelnolevel

by Mustaine

tuner correct add songbook print version text version save to e-mail
chordsukulelecavacokeyboardtabbassdrumsharmonicsflute Guitar Pro
chords

Walls of Jericho

Year: 1986 - Album: Walls of Jericho

(Michael Weikath - Kai Hansen)

  		"Walls Of Jericho" ("Ride The Sky" Intro) - Helloween - tab by:   

 Standard tunning, arranged for the guitar and the bass, no windy chords...  
  
|-----------------------------------|----------------------------|  
|-----------------------------------|----------------------------|  
|-9-11-9----------9---------------9-|-9-11-9----------9---9------|  
|--------12-11-12---9-11-12-11-12---|--------12-11-12---9---11-7-|  
|-----------------------------------|----------------------------|  
|-----------------------------------|----------------------------|  
  
|-----------------------------------|-------------------------------------------------|  
|-----------------------------------|-------------------------------------------------|  
|-9-11-9----------9---------------9-|-9-11-9----------9-------9-11----9-11-13-9-11-13-|  
|--------12-11-12---9-11-12-11-12---|--------12-11-12---11-12------12-----------------|  
|-----------------------------------|-------------------------------------------------|  
|-----------------------------------|-------------------------------------------------|  
  
|-------------------------|------|  
|-------------------------|----/-|  
|-14-14-14-14-11-11-11-13-|-14<--|  
|-------------------------|----\-|  
|-------------------------|------|  
|-------------------------|------|  
  

	  

Search Paypal
auto scroll beats size up size down change color hide chords drawings
tab show chords e-chords YouTube Clip e-chords hide all tabs e-chords go to top tab