Helloween

home > Helloween

Gorgar Tab

Helloween

Difficulty: nolevelnolevel

tuner correct add songbook print version text version save to e-mail
chordsukulelecavacokeyboardtabbassdrumsharmonicsflute Guitar Pro
chords

Gorgar

Year: 1986 - Album: Walls of Jericho

  		Intro; 
  E    C    E    B    C    D    E 
|----|----|----|----|----|----|----|---| 
|----|----|----|----|----|----|----|---| 
|----|----|----|----|----|----|----|---| 
|-9~-|-5~-|-9~-|-4~-|-5~-|-7~-|-9~-|-~-| 
|-7~-|-3~-|-7~-|-2~-|-3~-|-5~-|-7~-|-~-| 
|----|----|----|----|----|----|----|---| 
 
 Fazer sobre E C E 
|-15p12--12-17p12--12-15p12--12-17p12--12-| 
|------12--------12--------12--------12---| 
|-----------------------------------------| 
|-----------3 vezes-----------------------| 
|-----------------------------------------| 
|-----------------------------------------| 
 
Fazer sobre B 
|-14p11--11-15p11--11-14p11--11-15p11--11-| 
|------12--------12--------12--------12---| 
|-----------------------------------------| 
|-----------------------------------------| 
|-----------------------------------------| 
|-----------------------------------------| 
 
Fazer sobre C 
|-15p12--12-17p12--12-15p12--12-17p12--12-| 
|------12--------12--------12--------12---| 
|-----------------------------------------| 
|-----------------------------------------| 
|-----------------------------------------| 
|-----------------------------------------| 
 
Fazer sobre D 
|-17p14--14-19p14--14-17p14--14-19p14--14-| 
|------15--------15--------15--------15---| 
|-----------------------------------------| 
|-----------------------------------------| 
|-----------------------------------------| 
|-----------------------------------------| 
 
Fazer Sobre E 
|---------------------------------|----------------------------------- 
|-15b--15-13-12h13p12--12---------|----------------------------------- 
|--------------------14--12h14p12-|-11h12p11-9h11p9-7h9p7-5h7p5-4h5p4- 
|---------------------------------|----------------------------------- 
|---------------------------------|----------------------------------- 
|---------------------------------|----------------------------------- 
 
-----------------|----| 
-----------------|----| 
-2h4p2-0h2p0-4br-|-4~-| 
-----------------|----| 
-----------------|----| 
-----------------|----| 
 
Riff A; 
 
|---------------------------------|---------------------------| 
|---------------------------------|---------------------------| 
|---------------------------------|---------------------------| 
|---------------------------------|-----------------------H.a-|2 x; 
|-5h7----5h7------5h7----5h7------|-5h7----5h7------5h7----7--| 
|-----00-----0000-----00-----0000-|-----00-----0000-----00----| 
 
Guitarra 2; entra na 3 vez 
|------------------------------|---------------------------------| 
|------------------------------|---------------------------------| 
|-------2-4-5-------------5-4~-|---------5-4-----5-2-4---2-------| 
|-2-4-5-------5-4-2-4-5-2------|-2-4-5-4-----5-4-------5---4-5-1-| 
|------------------------------|---------------------------------| 
|------------------------------|---------------------------------| 
 
|------------------------------|-------------------------------------| 
|------------------------------|-----------------------------66-44-5-| 
|-------2-4-5-------------5-4~-|---------5-4-----55-22-44------------| 
|-2-4-5-------5-4-2-4-5-2------|-2-4-5-2-----5-4----------55---------| 
|------------------------------|-------------------------------------| 
|------------------------------|-------------------------------------| 
 
Canto 1; Guitarra 1; 2 x; 
 
|------------------------------|------------------------------------| 
|------------------------------|------------------------------------| 
|------------------------------|------------------------------------| 
|------------------------------|-----------------10-7-9----7--------| 
|-5h7----5h7------5h7----10-9~-|-5h7----5h7-------------10---9-10-6-| 
|-----00-----0000-----000-8-7~-|-----00-----0000--------------------| 
 
Canto 1; Guitarra 2; 
|------------------------------|---------------------------------| 
|------------------------------|---------------------------------| 
|-------2-5-4-------------5-4~-|---------5-4-----5-2-4---2-------| 
|-2-4-5-------5-4-2-4-5-2------|-2-4-5-2-----5-4-------5---4-5-1-| 
|------------------------------|---------------------------------| 
|------------------------------|---------------------------------| 
 
|------------------------------|-------------------------------------| 
|------------------------------|-----------------------------66-44-5-| 
|-------2-5-4-------------5-4~-|---------5-4-----55-22-44------------| 
|-2-4-5-------5-4-2-4-5-2------|-2-4-5-2-----5-4----------55---------| 
|------------------------------|-------------------------------------| 
|------------------------------|-------------------------------------| 
 
Pré Refrão; 
 
|---------------------|-----------|-------------------------------| 
|---------------------|-----------|-4h5p4h5-----------------------| 
|--------3~--------5~-|--------3~-|--------4h5p4h5----------------| 
|--------3~--------5~-|--------3~-|---------------4h5p4h5-1h2p1h2-| 
|--------1~--------3~-|--------1~-|-------------------------------| 
|-0-00-0----0-00-0----|-0-00-0----|-------------------------------| 
 
|---------------------|-------------------------------|---------| 
|---------------------|-------------------------------|---------| 
|--------3~--------5~-|--------3~---------------------|-4\----/-| 
|--------3~--------5~-|--------3~-4-44-4-44-4-44-4-44-|-4-\--/--| 
|--------1~--------3~-|--------1~-2-22-2-22-2-22-2-22-|-2--\/---| 
|-0-00-0----0-00-0----|-0-00-0------------------------|---------| 
 
Refrão; 
 
|---------------------------------|-------------------| 
|---------------------------------|-------------------| 
|---------------------------------|-----------------5-| 
|---------------------------------|-----------------5-| 2x; 
|-5h7----5h7------5h7----5h7------|-5h7----5h7------3-| 
|-----00-----0000-----00-----0000-|-----00-----0000---| 
 
Repetir Canto; Pré Refrão; Refrão; 
 
Break; 
 
|---------------|--------------------| 
|---------------|--------------------| 
|---------------|--------------------| 
|-5-5-5---4-4-4-|--3-3-3-------------| 2x; 
|-3-3-3---2-2-2-|--1-1-1--5-2-4/5----| 
|---------------|---------3-0-2/3-2~-| 
 
Ponte; Guitarra 1; 2x; 
|---------------------------------------|-------------------------------| 
|---------------------------------------|-------------------------------| 
|---------------------------------------|-------------------------------| 
|-5--------5----5----4--------4----4----|-3--------3----3---------------| 
|-3-333333-3-33-3-33-2-222222-2-22-2-22-|-1-111111-1-11-1-11-5---4/5----| 
|---------------------------------------|--------------------3-0-2/3-2~-| 
 
Ponte; Guitarra 2 ; 2x; 
|----------------------------------|-----------------------------| 
|----------------------------------|-----------------------------| 
|-55--55--55--55--44--44--44--44---|-33--33--33--33--------------| 
|---22--22--22--22--22--22--22--22-|---00--00--00--00------------| 
|----------------------------------|------------------5---4/5----| 
|----------------------------------|------------------3-0-2/3-2~-| 
 
Dueto; 
 
|-------------------------------------|-------------------------------| 
|-------------------------------------|----------------5--3--------3~-| 
|--------2--4----4--3-----3---2-----2-|--------2-4---4-------4---4----| 
|-2-4-5-------5--------4---------3----|-2-4-5------2-----------5------| 
|-------------------------------------|-------------------------------| 
|-------------------------------------|-------------------------------| 
| 
|-------------------------------------|----------7---7-12-10-7---7-10~| 
|---7-8-10-12----12-11----11-10----10-|---7-8-10---------------8------| 
|-9-----------12-------11-------10----|-9----------9------------------| 
|-------------------------------------|-------------------------------| 
|-------------------------------------|-------------------------------| 
|-------------------------------------|-------------------------------| 
 
|------------------------------------|-------------------------------| 
|------------------------------------|-------------------------------| 
|--------2--4----4--3----3---2-----2-|-------2--4-----4--3------2----| 
|-2-4-5-------5-------4--------3-----|-2-4-5-------5--------4------3-| 
|------------------------------------|-------------------------------| 
|------------------------------------|-------------------------------| 
| 
|------------------------------------|-------------------------------| 
|---7-8-10-12----12-11---11-10----10-|---7-8-10-12----12-11----10----| 
|-9-----------12------11-------10----|-9-----------12-------11----10-| 
|------------------------------------|-------------------------------| 
|------------------------------------|-------------------------------| 
|------------------------------------|-------------------------------| 
 
|---------| 
|---------| 
|---------| 
|-2\----/-| 
|-2-\--/--| 
|-0--\/---| 
 
Solo 1; 
 
|-10b-7h8p7--7----------------------|--------------------------------| 
|----------10-10p7-12p0-10p7-77-10b-|-8h10p8-7h8p7-5h7p5-3p0-0-------| 
|-----------------------------------|--------------------------4br-4-| 
|-----------------------------------|--------------------------------| 
|-----------------------------------|--------------------------------| 
|-----------------------------------|--------------------------------| 
 
|---------------------------------------|--------------------5----------| 
|---------------------------------------|-----------3-5-7-7h8-7h8-7h8p8-| 
|---------------------------------0h2h4-|------2-4-5--------------------| 
|----------------------2p0h2-0h2h4------|-2-4-5-------------------------| 
|-5p2-22-5p2-22-2h5-5p2-----------------|-------------------------------| 
|---------------------------------------|-------------------------------| 
 
Solo 2; 
                                                                   H.a 
|--------------------------------|-15p11111113p11111115p11111113p111111-- 
|--------------------------8-11b-|--------------------------------------- 
|---------------8-----81011------|--------------------------------------- 
|------------810-10810-----------|--------------------------------------- 
|--------8910--------------------|--------------------------------------- 
|-8118811------------------------|--------------------------------------- 
     
                                                                                                                   H.A 
-11br-8-------8-|-----------------------------------| 
-------11p8h11--|-8---------------------------------| 
----------------|--10h11p10-8-10b-------------------| 
----------------|-----------------10-8--------------| 
----------------|----------------------10-9-8-6---6-| 
----------------|-------------------------------8---| 
 
|-15p11111113p11111115p11111110h11p10p8--8-----------------11b-| 
|--------------------------------------11-11b-11p8-11b-11p8----| 
|--------------------------------------------------------------| 
|--------------------------------------------------------------| 
|--------------------------------------------------------------| 
|--------------------------------------------------------------| 
 
Fazer Refrão; 
 
Refrão 2; 
 
|-----------------------------------|--------------| 
|-----------------------------------|--------------| 
|-----------------------------------|------------5-| 
|-----------------------------------|------------5-| 2x; 
|-----------------------------------|------------3-| 
|-000000000000000000000000000000000-|-0000000000---| 
 
|---------------------|---| 
|---------------------|---| 
|-5-5-5-555-5-5-5-555-|---| 
|-5-5-5-555-5-5-5-555-|-2-| fim; 
|-3-3-3-333-3-3-3-333-|-2-| 
|---------------------|-0-| 
 
Base Solo 1; 
 
|----------|-------|-------|-| 
|----------|-------|-------|-| 
|-4~----4~-|----4~-|----4~-|-| 
|-4~----4~-|----4~-|----4~-|-| 
|-2~----2~-|----2~-|----2~-|-| 
|----------|-------|-------|-| 
 
Base Solo 2; 
 
|--------------|-----------|------------|-------------| 
|--------------|-----------|------------|-------------| 
|-5----------5-|---------5-|----------5-|-------------| 
|-5----------5-|---------5-|----------5-|-----5-6-7-8-| 
|-3-33333333-3-|-3333333-3-|-33333333-3-|---3-3-4-5-6-| 
|--------------|-----------|------------|-------------| 
 
Pessoal o solo esta perfeito, mas não da pra tirar ele desse jeito, passei do jeito certo, mas tirem do seu jeito, 
Eu não o toco assim também, ele é foda mesmo, duvidas me escrevam não importam quais forem. 
vejam também Mankind, Heavy Metal(Is the Law), Still We Go e breve Save us. 
Adicionei também  varias Guitar Pro do Helloween foi de lá que tirei essas musicas; 
HEAVY METAL FOR ALL!!! 

	  

Full key step upFull key step up
Half key step upHalf key step up
Half key step downHalf key step down
Full key step downFull key step down
Search Paypal
auto scroll beats size up size down change color hide chords drawings
tab show chords e-chords YouTube Clip e-chords hide all tabs e-chords go to top tab