Helloween

home > Helloween

Before the War Tab

Helloween

Difficulty: nolevelnolevel

tuner correct add songbook print version text version save to e-mail
chordsukulelecavacokeyboardtabbassdrumsharmonicsflute Guitar Pro
chords

Before the War

Year: 1996 - Album: The Time of the Oath

  		Canto 1; 
|----------|----------|----------|----------|----------|----------| 
|----------|----------|----------|----------|----------|----------| 
|----------|----------|----------|----------|----------|----------| 
|----------|----------|----------|----------|----------|----------| 
|-55558888-|-77778888-|-55558888-|-77778888-|-----8888-|-77778888-| 
|----------|----------|----------|----------|-6666-----|----------| 
 
|------------------|-------| 
|------------------|-------| 
|------------------|----10-| 
|------------------|-10-10-| 2 vezes; 
|-1010101010101010-|-10--8-| 
|------------------|--8----| 
 
Ponte; 
|----------|----------|----------|----------|----------|----------| 
|----------|----------|----------|----------|----------|----------| 
|----------|----------|----------|----------|----------|----------| 
|----------|----------|----------|----------|----------|----------| 
|----------|----------|----------|----------|-55555555-|-55555555-| 
|-66666666-|-66666666-|-66666666-|-66666666-|----------|----------| 
 
|----------|----------|----------|----------|----------|----------| 
|----------|----------|----------|----------|----------|----------| 
|----------|----------|----------|----------|----------|----------| 
|----------|----------|----------|----------|----------|----------| 
|-55555555-|-55555555-|----------|----------|----------|----------| 
|----------|----------|-66666666-|-66666666-|-66666666-|-66666666-| 
  
                                                             Refrão;  
                          D           A             Bb     F 
|---------|---------|   |---|-|---|-|---|----|----------|------------- 
|---------|---------|   |---|-|---|-|---|----|----------|------------- 
|---------|---------|   |-7-|-|---|-|---|----|----------|------------- 
|---------|-------5-|   |-7-|-|-7-|-|-8-|-10-|----------|------------- 
|-5-5-5-5-|-5-5-5-3-|   |-5-|-|-7-|-|-8-|-10-|-55555555-|-550055005500 
|-3-3-3-3-|-3-3-----|   |---|-|-5-|-|-6-|--8-|----------|------------- 
 
|---|-----------|---|-|---|-|---|-|---|----|----------|----------|---| 
|---|-----------|---|-|---|-|---|-|---|----|----------|----------|---| 
|-3-|-----------|---|-|-7-|-|---|-|---|----|----------|-10101010-|-7-| 
|-3-|-----------|-5-|-|-7-|-|-7-|-|-8-|-10-|----------|----------|---| 
|-1-|-0-0-0-0-0-|-5-|-|-5-|-|-7-|-|-8-|-10-|-55555555-|----------|---| 
|---|-----------|-3-|-|---|-|-5-|-|-6-|--8-|----------|----------|---| 
 
|-----------|---|-| 
|-----------|---|-| 
|-----------|---|-| 
|-2-2-2-2-2-|-5-|-| 
|-0-0-0-0-0-|-5-|-| 
|-----------|-3-|-| 
  
Repetir tudo; 
 
Passagem; 
 
|---|-----|-----------|-----|-----------|-----|---|-------|-----------| 
|---|-----|-----------|-----|-----------|-----|---|-------|-----------| 
|---|-----|-----------|-----|-----------|-----|---|-------|-----------| 
|---|-----|-----------|-----|-----------|-----|-2-|-------|-----------| 
|-4-|-4-2-|-4-4-4-4-4-|-5-7-|-4-4-4-4-4-|-4-2-|-0-|-5-6-7-|-4-4-4-4-4-| 
|-2-|-2-0-|-2-2-2-2-2-|-3-5-|-2-2-2-2-2-|-2-0-|---|-------|-2-2-2-2-2-| 
 
|-----|-----------|-----|-----------|-----|---|-------|-------|-------| 
|-----|-----------|-----|-----------|-----|---|-------|-------|-------| 
|-----|-----------|-----|-----------|-----|---|-------|-------|-7-8-9-| 
|-----|-----------|-----|-----------|-----|-7-|-------|-5-6-7-|-------| 
|-4-2-|-4-4-4-4-4-|-5-7-|-4-4-4-4-4-|-4-2-|-7-|-5-6-7-|-------|-------| 
|-2-0-|-2-2-2-2-2-|-3-5-|-2-2-2-2-2-|-2-0-|-5-|-------|-------|-------| 
 
|-----------| 
|-----------| 
|-7h8p7....-| 
|-----------| 
|-----------| 
|-----------| 
 
Dueto 1;  
                                                                         2 vezes; 
|----------------|-----------------|-7-00-9-00-10-0-|14p0-12p0-10p0-12p0- 
|-7-00-8-00-10-0-|-0-12-00-7-0-8-0-|----------------|-------------------- 
|----------------|-----------------|----------------|-------------------- 
|----------------|-----------------|----------------|-------------------- 
|----------------|-----------------|----------------|-------------------- 
|----------------|-----------------|----------------|-------------------- 
| 
|----------------|-----------------|-3-00-5-00--7-0-|-10p0-9p0--5p0--7p0- 
|-3-00-5-00--7-0-|-0--8-00-5-0-3-0-|----------------|-------------------- 
|----------------|-----------------|----------------|-------------------- 
|----------------|-----------------|----------------|-------------------- 
|----------------|-----------------|----------------|-------------------- 
|----------------|-----------------|----------------|-------------------- 
 
|-------------------|--14141414-12---|-------------------|--14141414-12-- 
|-15-00-14-00-15-14-|-0-----------14~|-15-00-14-00-15-14-|-0-----------14 
|-------------------|----------------|-------------------|--------------- 
|-------------------|----------------|-------------------|--------------- 
|-------------------|----------------|-------------------|--------------- 
|-------------------|----------------|-------------------|--------------- 
| 
|-------------------|--10101010-9----|-------------------|--10101010--9-- 
|-12-00-10-00-12-10-|-0----------10~-|-12-00-10-00-12-10-|-0-----------10 
|-------------------|----------------|-------------------|--------------- 
|-------------------|----------------|-------------------|--------------- 
|-------------------|----------------|-------------------|--------------- 
|-------------------|----------------|-------------------|--------------- 
 % 
|-------------------|--14141414-12---|---------------------|------------- 
|-15-00-14-00-15-14-|-0-----------14~|-15P0-14P0-12P0-10P0-|-8P0-7P0-5P0- 
|-------------------|----------------|---------------------|------------7 
|-------------------|----------------|---------------------|------------- 
|-------------------|----------------|---------------------|------------- 
|-------------------|----------------|---------------------|------------- 
 
Fazer dueto 1  novamente menos %; 
 
|-----------|---------|---------|---------| 
|-(15~)-----|---------|---------|---------| 
|-(16~)-----|---------|---------|---------| 
|---9-7-8---|-7-------|---------|---------| 
|---------9-|---7-9-5-|-7-4-5-2-|-4---2---| 
|-----------|---------|---------|---5---2-| 
 
Solo 1; Roland 
 
|--------|-|---15-----17------|-19-19b-|-17h19p17-|-----------|----15---| 
|-17-20b-|-|------------------|--------|----------|-17~-18p17-|-15~--15-| 
|--------|-|-12--12-14--14-16-|--------|----------|-----------|---------| 
|--------|-|------------------|--------|----------|-----------|---------| 
|--------|-|------------------|--------|----------|-----------|---------| 
|--------|-|------------------|--------|----------|-----------|---------| 
                                                         H.A 
|-14~----|-----------|--------|-------------|----|------------|---------| 
|--------|-----------|--------|-10-8--------|----|------------|----13---| 
|-----12-|-12~-14p12-|--14~---|------9p7----|----|--------5---|-14~--14-| 
|--------|-----------|--------|----------10-|-7~-|-5h7-77---7-|---------| 
|--------|-----------|------8-|-------------|----|------------|---------| 
|--------|-----------|--------|-------------|----|------------|---------| 
 
|-----|-----|-19b-|-19br-19-|-17-15-|-17~-|-17-19-19-19b-|-19-17-|-15-13- 
|-15~-|-17~-|-----|---------|-------|-----|--------------|-------|------- 
|-----|-----|-----|---------|-------|-----|--------------|-------|------- 
|-----|-----|-----|---------|-------|-----|--------------|-------|------- 
|-----|-----|-----|---------|-------|-----|--------------|-------|------- 
|-----|-----|-----|---------|-------|-----|--------------|-------|------- 
 
|-12-13-15-|-12h13p12----------15-12-|-15b-|--------12-15-12-| 
|----------|---------13------13------|-----|------13---------| 
|----------|-----------12--12--------|-----|----12-----------| 
|----------|-------------14----------|-----|-14--------------| 
|----------|-------------------------|-----|-----------------| 
|----------|-------------------------|-----|-----------------| 
 
|-17-17p14----17-|-20-17------------|------| 
|---------15-----|------17-13-15-13-|-15b~-| 
|-----------14---|------------------|------| 
|----------------|------------------|------| 
|----------------|------------------|------| 
|----------------|------------------|------| 
 
Solo 2; Michael 
 
|-----|------------|-------------|-----|-|-12-------------------| 
|-----|------------|-------12-13-|-15b-|-|---15-13-12-----------| 
|-7/9-|-9/11-11/12-|-12/14-------|-----|-|-----------14-12-11---| 
|-----|------------|-------------|-----|-|-------------------14-| 
|-----|------------|-------------|-----|-|----------------------| 
|-----|------------|-------------|-----|-|----------------------| 
 
|-----------------------|-----------|---------|-------|-----------|------ 
|-----------------------|-----------|---------|-------|-----------|------ 
|-----------------------|-----------|-----7/9-|-11-12-|-7/9~-9/12-|-11-12 
|-12-10-----------------|-14~-16p14-|-13~-----|-------|-----------|------ 
|------14-12-10---------|-----------|---------|-------|-----------|------ 
|--------------14-12-10-|-----------|---------|-------|-----------|------ 
 
|----|-15-12-----------------|----------------------|-------------------- 
|----|------13-12-12---------|-12-------------------|-------------------- 
|----|--------------12-14-12-|---12-----------------|-12-14p12----------- 
|-12-|-----------------------|-----16p14-14p12-16-12|----------16p1214p12 
|----|-----------------------|----------------------|-------------------- 
|----|-----------------------|----------------------|-------------------- 
 
|------------------------|-----------------------|----------------------- 
|------------------------|-----------------------|-----------------------	 
|-14p12-16p12-14p12------|-14p12-16p12-14p12-----|-14p12-16p14-12p14----- 
|------------------16-12-|------------------16-12|------------------16-12 
|------------------------|-----------------------|----------------------- 
|------------------------|-----------------------|----------------------- 
 
|-----------------------|-------------------------|-----|----12------| 
|-----------------------|-------------------------|-15b-|-15b--15p12-| 
|------14p12-16p12------|-------14p12-16p12-14p12-|-----|------------| 
|-14-12-----------16-14-|-14-12-------------------|-----|------------| 
|-----------------------|-------------------------|-----|------------| 
|-----------------------|-------------------------|-----|------------| 
 
|-15p12h17p12h15p12-14-12-|------------------------| 
|-------------------------|-15p12-13p12h13p12------| 
|-------------------------|------------------14-12-| 
|-------------------------|------------------------| 
|-------------------------|------------------------| 
|-------------------------|------------------------| 
 
Dueto 2 ; 
 
|----------|-----------|----------|-----------|---------|-10-10b-| 
|----12-10-|-----------|----12-10-|-----------|---12-10-|--------| 
|----------|--12-11-12-|----------|--12-11-12-|-9-------|--------| 
|-10-------|-----------|-10-------|-----------|---------|--------| 
|----------|-----------|----------|-----------|---------|--------| 
|----------|-----------|----------|-----------|---------|--------| 
| 
|----------|-----------|----------|-----------|---------|--------| 
|----------|-----------|----------|-----------|---------|--7--7b-| 
|----7-----|---9--7--9-|-----7----|---9--7--9-|----7--5-|--------| 
|------10--|-----------|-------10-|-----------|-5-------|--------| 
|--7-------|-----------|--7-------|-----------|---------|--------| 
|----------|-----------|----------|-----------|---------|--------| 
 
|---------|-10-10b-|----------|----------|----------|----------| 
|---12-10-|--------|----12-10-|----------|----12-10-|----------| 
|-9-------|--------|----------|-12-11-12-|----------|-12-11-12-| 
|---------|--------|-10-------|----------|-10-------|----------| 
|---------|--------|----------|----------|----------|----------| 
|---------|--------|----------|----------|----------|----------| 
| 
|---------|--------|----------|----------|----------|----------| 
|---------|--7--7b-|----------|----------|----------|----------| 
|----7--5-|--------|-----7----|--9--7--9-|-----7----|--9--7--9-| 
|-5-------|--------|-------10-|----------|-------10-|----------| 
|---------|--------|--7-------|----------|--7-------|----------| 
|---------|--------|----------|----------|----------|----------| 
 
|---|----|---------|---------| 
|---|----|-----10~-|-12~-13~-| 
|-9-|-11-|-12~-----|---------| 
|---|----|---------|---------| 
|---|----|---------|---------| 
|---|----|---------|---------| 
| 
|---|----|---------|---------| 
|---|----|---------|---------| 
|---|----|---------|--7~--9~-| 
|-5-|--7-|--9~-10~-|---------| 
|---|----|---------|---------| 
|---|----|---------|---------| 
 
Passagem 2; 
 
|---|-|-------|-------|---|-|-------|-------|---|-|----|---| 
|---|-|-------|-------|---|-|-------|-------|---|-|----|---| 
|-5-|-|----10-|-8-7---|-5-|-|----10-|-8-7---|---|-|----|---| 
|-5-|-|--8-10-|-8-7-8-|-5-|-|--8-10-|-8-7-8-|-6-|-|----|-5-| 
|-3-|-|--8--8-|-6-5-8-|-3-|-|--8--8-|-6-5-8-|-6-|-|-8~-|-5-| 
|---|-|--6----|-----6-|---|-|--6----|-----6-|-4-|-|----|-3-| 
 
Final; 
 
|---|-|---|-|----------|----------|----|-----|-------------|-------|----- 
|---|-|---|-|----------|----------|----|-----|-------------|-------|----- 
|-5-|-|---|-|----------|----------|----|-----|-------------|-------|----- 
|-5-|-|-8-|-|-----5577-|---77--77-|----|-----|-------------|-------|77777 
|-3-|-|-8-|-|-5588-----|-55--88---|----|-----|-------------|-7-5-3-|55555 
|---|-|-6-|-|----------|----------|-6~-|-8-6-|-32103210...-|-5-3-1-|----- 
 
Bases; 
 
Base dueto 1; 
 
|----------|----------|----------|----------|----------|----------| 
|----------|----------|----------|----------|----------|----------| 
|----------|----------|----------|----------|----------|----------| 
|----------|----------|----------|----------|----------|----------| 
|----------|----------|----------|----------|----------|----------| 
|-77777777-|-77777777-|-33333333-|-55555555-|-77777777-|-77777777-| 
 
|----------|----------|----------|----------|------------------| 
|----------|----------|----------|----------|------------------| 
|----------|----------|----------|----------|------------------| 
|----------|----------|----------|----------|------------------| 
|----------|----------|----------|----------|-1010101010101010-| 
|-33333333-|-55555555-|-77777777-|-77777777-|------------------| 
 
|---------------|----------|----------|-------|--------| 
|---------------|----------|----------|-------|--------| 
|---------------|----------|----------|-------|--------| 
|---------------|----------|--------7-|-9-7-9-|--7-9-7-| 
|-10101010-9999-|-77777777-|-777777---|-9-7-9-|--7-9-7-| 
|---------------|----------|----------|-7-5-7-|--5-7-5-| 
 
Base solo  1 ; 2 vezes; 
 
|----------|----------|----------|----------|----------|----------| 
|----------|----------|----------|----------|----------|----------| 
|----------|----------|----------|----------|----------|----------| 
|----------|----------|----------|----------|----------|----------| 
|----------|----------|-77777777-|-77777777-|-88888888-|-88888888-| 
|-55555555-|-55555555-|----------|----------|----------|----------| 
 
|------------------|----------|----------|----------|----------| 
|------------------|----------|----------|----------|----------| 
|------------------|----------|----------|----------|----------| 
|------------------|----------|----------|----------|----------| 
|-1010101010101010-|----------|----------|----------|-55555555-| 
|------------------|-44444444-|-55555555-|-55555555-|----------| 
 
|----------|----------|----------|----------|----------| 
|----------|----------|----------|----------|----------| 
|----------|----------|----------|----------|----------| 
|----------|----------|----------|----------|----------| 
|-55555555-|-33333333-|-33333333-|-22222222-|----------| 
|----------|----------|----------|----------|-33333333-| 
 
Base solo 2 ;3 vezes; 
 
|----------|---------------|----------|---------------|---------------| 
|----------|---------------|----------|---------------|---------------| 
|----------|---------------|----------|---------------|---------------| 
|----------|---------------|----------|---------------|---------------| 
|-77777777-|-1010109991010-|-77777777-|-1010109991010-|-33333333------| 
|----------|---------------|----------|---------------|---------------| 
 
|-----------|----------|------------| 
|-----------|----------|------------| 
|-----------|----------|------------| 
|-5555-7777-|----------|------------| 
|-----------|-66666666-|-7779991010-| 
|-----------|----------|------------| 
 
Base dueto 2; 
 
|----|----|----|----------|----------|---------------|---------------| 
|----|----|----|----------|----------|---------------|---------------| 
|-5~-|-9~-|-5~-|----------|----------|---------------|---------------| 
|-5~-|-9~-|-5~-|----------|----------|----------7777-|-9999-10101010-| 
|-3~-|-7~-|-3~-|-77777777-|-99999999-|-10101010------|---------------| 
|----|----|----|----------|----------|---------------|---------------| 

	  

Full key step upFull key step up
Half key step upHalf key step up
Half key step downHalf key step down
Full key step downFull key step down
Search Paypal
auto scroll beats size up size down change color hide chords drawings
tab show chords e-chords YouTube Clip e-chords hide all tabs e-chords go to top tab