Hellhammer

Triumph Of Death

Hellhammer

tabs nolevel nolevel

by  DEIVCAVALCANTI

save to print version add songbook text version e-mail correct tuner
chordsukulelecavacokeyboardtabbassdrumsharmonicaflute Guitar Pro
close

there isn't a video lesson for this song

chords

Triumph Of Death

	  		

Tuning:E standard 


e|-----------------------------| 
B|-----------------------------| 
G|-----------------------------| 
D|-----------------------------| 
A|-----------------------------| 
E|0~~3~2~5~4~7~6~5~4~3~2~5~4~~0| 
     * * * * * * * * * * * * 
*Pinch harmonics 

e|-----------------------------| 
B|-----------------------------| 
G|-----------------------------| 
D|-----------------------------| 
A|-----------------------------| 
E|0h3p0h3p0h3p0h3p0h3p0h3~~~~~~| 


e|----------------------| 
B|----------------------| 
G|----------------------| 
D|-------------8--7--6--| 
A|2--5-4-5--8--6--5--4--| 
E|0--3-2-3--6-----------| 


e|----------------| 
B|----------------| 
G|----------------| 
D|----------------| 
A|2----6----5----4| 
E|0----4----3----2| 


e|-----------------------| 
B|-----------------------| 
G|-----------------------| 
D|-----------------------| 
A|---5----7----8----7-8-7| 
E|00-3-00-5-00-6-00-5-6-5| 

e|-----------------------| 
B|-----------------------| 
G|-----------------------| 
D|-----------------------| 
A|---5----7----8----9-8-9| 
E|00-3-00-5-00-6-00-7-6-7| 


e|---------------------| 
B|---------------------| 
G|---------------------| 
D|---------------------| 
A|---5----5----5----5-5| 
E|00-3-00-3-00-3-00-3-3| 

e|---------------| 
B|---------------| 
G|---------------| 
D|---------------| 
A|77777777777-7-7| 
E|55555555555-5-5| 



e|----------------|----------------| 
B|----------------|----------------| 
G|----------------|----------------| 
D|----------------|----------------| 
A|777-777-777-9-10|555-555-555-4-3-| 
E|555-555-555-7-8-|333-333-333-2-1-| 

e|-------------------| 
B|-------------------| 
G|-------------------| 
D|-------------------| 
A|-------------------| 
E|0-00-0-00-0-00-3~3~| 

e|---------------------------------| 
B|---------------------------------| 
G|---------------------------------| 
D|---------------------------------| 
A|---------------------------------| 
E|0~3~030303-2~5~0505050-5~55-4~5~7| 
                         * ** * * * 
		  

See also:

tabs Deep Purple - Deep Purple - Smoke On The Water tabs Albert Hammond Jr - Miss Myrtle tabs Deep Purple - The Unwritten Law tabs Deep Purple - Pictures of Home tabs Deep Purple - Space Truckin tabs Deep Purple - Rat Bat Blues
e-chords

Other versions:

tabs Hellhammer - Triumph Of Death
auto scroll beats size up size down change color hide chords drawings
tab show chords e-chords YouTube Clip e-chords hide all tabs e-chords go to top tab

share with facebook