Heitor Villa Lobos

home > Heitor Villa Lobos

Bachianas Nº5 Tab

Heitor Villa Lobos

Difficulty: nolevelnolevel

by robepoiel

tuner correct add songbook print version text version save to e-mail
chordsukulelecavacokeyboardtabbassdrumsharmonicsflute Guitar Pro
chords

Bachianas Nº5

  		5/4 
   Segno 
1                                                   
E|-----------------------------------------|| 
B|---------0-----------------1p0-----------|| 
G|-------2-------0-2-------0-----2-2-4-2-1-|| 
D|---3-5-----2-3-----0-2-3-----------------|| 
A|-0---------------------------------------|| 
E|---------3-------1-------0-------1---0---|| 
    | | | | | | | | | | | | | | | | | | | |   
    |       |       |       |       | 
L     2 4 1 3 2 4   3   2 4   1   2 2 4 2 1 
                    1               1 

    *  
2                 V4.... 
E|--------------1p0-----5-------------0------| 
B|------1-----------------8-6-5---5-------0--| 
G|--------2---2-------5---------7-------5----| 
D|----2-----2-------7-------6-------7--------| 
A|--0----------------------------------------| 
E|-------------------------------------------| 
    | | | | | | | | | | | | | | | | | | | |   
    |       |       |       |       | 
L     2 1 3 2 3 1   3 1 1 4 3 1 4 1 3   1 
                            2 

3                                          3/4 
E|-----0-1---3-1-0---1-0-----0---------1-0-|----0--0-----0--0-----0--0-| 
B|---3-----0-------------3-----3-1---------|----1--1-------------------| 
G|-----------------1-----------------1-----|----2--2-----6--6-----6--6-| 
D|-3-------------------------------2-------|----------7--------5-------| 
A|-------------------------2---------------|-0-------------------------| 
E|-----------------------------------------|---------------------------| 
   | | | | | | | | | | | | | | | | | | | |   |  |  |  |  |  |  |  |  |      
   |       |       |       |       |         |        |        | 
L  3 4   1   4 1   1 2   4 2   4 1 3 1 2        1  1  3  2  2  1  2  2 
                                                2  2 

6/4 

5 
E|-----0--0-----0--0-----0--0-----0--0--0--0--0--0--0--0--| 
B|--------------------------------------------------------| 
G|-----6--6-----6--6-----6--6-----6--6--6--6--6--6--6--6--| 
D|-----7--7-----7--7-----7--7-----7--7-----7--7--7--------| 
A|--7--------4--------0--------4--------7-----------------| 
E|--------------------------------------------------------| 
    |  |  |  |  |  |  |  |  |  |  |  |  |  |  |  |  |  |   
    |        |        |        |        |        | 
L   3  2  2  1  2  2     2  2  1  2  2  2  2  2  2  2  2 
       4  4     4  4     4  4     4  4  3  4  4  4 

7 
E|-----5--5------------------------5--5-----5--5-----5--5-| 
B|-----7--7-----10-10----10-10-----7--7-----3--3-----3--3-| 
G|-----7--7-----11-11----11-11--------------5--5-----5--5-| 
D|--0-------------10--------7--------4--------0-------| 
A|--------------------------------------------------------| 
E|--------------------------------------------------------| 
    |  |  |  |  |  |  |  |  |   |  |  |  |  |  |  |  |  |   
    |        |        |         |        |        | 
L      1  1  4  2  2  1  2  2   3  1  1  2  4  4     4  4 
       4  4     3  3     3  3      4  4     1  1     1  1 
       3  3                                 3  3     3  3 

4/4 

9III............                   II2.... 
E|-----3-------3-------3-------3---|-----1-------3---------0---------| 
B|-------3-------3-------3-------3-|-------3-------2-----6-------6---| 
G|---3-------3-------3-------3-----|---2-------2-------3-----------7-| 
D|-5-------3-------2---------------|-3-------2-------0---------5-----| 
A|-------------------------3-------|---------------------------------| 
E|---------------------------------|-------------------------6-------| 
   | | | | | | | | | | | | | | | |   | | | | | | | | | | | | | | | |    
   |       |       |       |         |       |       |       |         
L  3 1 1 1 1 1 1 1 1 2 3 4 1 2 4 3   3 2 1 4 1 2 4 3   1 4   2 1 3 4  


11 
E|-----3-------3-------3-------3---|-----1-------1-------1-------1---| 
B|-------2-------3-------5-------2-|-------3-------3-------3-------0-| 
G|---3-------3-------2-------0-----|---2-------2-------0-------0-----| 
D|-2-------0-----------------------|-0-------------------------------| 
A|-----------------4-------0-------|---------3-------2---------------| 
E|---------------------------------|-------------------------3-------| 
   | | | | | | | | | | | | | | | |   | | | | | | | | | | | | | | | |    
   |       |       |       |         |       |       |       |   
L  1 3 4 2   2 4 3 3 1 2 4     2 1     2 1 4 3 2 1 4 2   1 4 3   1 


13                                       III I..           I3...... 
E|-----0-------0-------1-------1---|-----0-----------------------1---| 
B|-------1-------3-------2-------3-|-------------3-0-----3-0-------3-| 
G|---0-------1-------2-------2-----|---2-------2-------2-------1-----| 
D|-------------------------0-------|-2-----5-3-------2-------2-------| 
A|-3-------2-------0---------------|---------------------------------| 
E|---------------------------------|-0-----3-1-------0-------0-------| 
   | | | | | | | | | | | | | | | |   | | | | | | | | | | | | | | | |    
   |       |       |       |         |       |       |       |   
L  3     1 2 1   4   2 1 3   2 1 4   3 4   3 3 2 4   2 3 4   2 1 1 3 
                                           1 1 

6/4 

15V......................II4..................... 
E|-------------5-------5-------3-------3-------3---| 
B|-----5---------5-------5-------2-------5-------2-| 
G|-------6---6-------6-------2-------2-------2-----| 
D|---5-----7-------5-------2-----------------------| 
A|---------------------------------4-------0-------| 
E|-5-----------------------------------------------| 
   | | | | | | | | | | | | | | | | | | | | | | | |  
   |       |       |       |       |       |      
L  1 1 1 2 3 2 1 1 1 2 1 1 1 1 2 1 3 1 2 4   1 2 1 
           
5/4 

16II3.... 
E|-----5-------1---------------------------| 
B|-------3-------3-------------------------| 
G|---2-------2---------2-------2-----------| 
D|-0-------0---------0---3---0---3-----3-0-| 
A|-----------------3-------2---------2-----| 
E|---------------------------------3-------| 
   | | | | | | | | | | | | | | | | | | | | 
   |       |       |       |       |      
L    1 4 2   2 1 4 3   2 4 1   2 4 3 1 4  


174/4 
E|---------------------------------|---------------------------------| 
B|-----1-------3-------1-------3---|-----3---------------0-----------| 
G|-------0-------1-------2-------2-|-------2-----2---------1-----1---| 
D|---2-------2-------2-------0-----|---3-------0---3---0-----2p0---3-| 
A|-3-------2-------0---------------|-2-------0-----------------------| 
E|-------------------------1-------|-----------------4-------0-------| 
   | | | | | | | | | | | | | | | |   | | | | | | | | | | | | | | | |    
   |       |       |       |         |       |       |       |   
L  3 2 1   2 3 4 1   2 1 3 1   4 2   1 3 4 2     2 3 4     1 2   1 3 


19V....................... IV....                  V3...... rit. 
E|-----5-------5-----5---------5---|-----5-------5-------5-------4---| 
B|-------5-------5-----6---------6-|-------5-------3-------5-------6-| 
G|---5-------5-----------7---4-----|---5-------4-------5-------7-----| 
D|-7-------5---------------0-------|---------3-----------------------| 
A|-----------------8---------------|---------------------------------| 
E|-5-------------------------------|-0---------------0-------0-------| 
   | | | | | | | | | | | | | | | |   | | | | | | | | | | | | | | | |    
   |       |       |       |         |       |       |       |   
L  3 1 1 1 1 1 1 1 4 1 2 3   1 2 3     2 3 4 1 3 4 2   1 1 1   4 1 3 
   1 

21                                                             Fine 
E|---------------------------------|---------------------------------| 
B|-----3-1-0-----------------------|---------------------------------| 
G|-----------2-1-2-----0-----------|---------------------------------| 
D|-----------------------3-2-0-----|---------------------------------| 
A|-0---------------0-3---------3-2-|-0----------------------------| 
E|---------------------------------|-----------------5---------------| 
   | | | | | | | | | | | | | | | |   | | | | | | | | | | | | | | | |    
   |       |       |       |         |       |       |       |   
R      4 1   2 1 2   3   4 2   3 2                   4 

L 

23 
E|-0-0-0-0-0-0-0-0-----|---------------------|---------------------| 
B|-4---3---2---1---5-3-|-3-3-3-3-3-3-3-3-3-1-|-1-1-1-1-1-1-1-1-1-0-| 
G|-4---3---2---1-------|-6---5---4---3-------|-4---3---2---1-------| 
D|-----------------0---|-------------0-------|---------------------| 
A|---------------------|---------------------|---------------------| 
E|---------------------|-----------------0---|-----------------1---| 
   | | | | | | | | | |   | | | | | | | | | |   | | | | | | | | | | 
   |   |   |   |   |     |   |   |   |   |     |   |   |   |   |       
L  4   4   4   2   4 1   1 1 1 1 1 1 4 4 4 1   1 1 1 1 1 1 1   1 
   3   3   3   1         4   3   2   3         4   3   2   1   2 

           


25                                 II...... 
E|---------------------|---------------------|---------------------| 
B|-0-0-0-0-0-0-0-0-----|---------------------|---------------------| 
G|-3---2---1---0---4-3-|-3-3-3-3-3-3-3-3-3-2-|-2-2-2-2-2-2-2-2-2-1-| 
D|-1---3---2---1-------|-3---5---4---2-------|-6---4---2---1---0---| 
A|---------------------|-------------4---2---|-------------2-------| 
E|---------1---1---2---|-------------2-------|-----------------0---| 
   | | | | | | | | | | | | | | | | | | | | |   | | | | | | | | | |  
   |   |   |   |   |     |   |   |   |   |     |   |   |   |   |       
L  4   3   2   2   4 3   2 2 2 2 2 2 2 2 2 1   1 1 1 1 4 4 4 4 4 2 
   2   4   4   1   1     3   4   3   1   1     4   3   3   2 
           1                         3                     3 
                                     1 


27III  I2                / 3 \ 
E|-------1-----0-----------1-1-1-0-----------| 
B|-3-----1-----0-----3-----1-1-1-0-----3-----| 
G|-4-----2-----0-----2-----2-2-2-0-----2-----| 
D|-3-----------------3-----------------3-----| 
A|-------0-----------------0-----------------| 
E|-------------------------------------------| 
   |  |  |  |  |  |  |  |  |  |  |  |  |  |    
   |     |     |     |     |     |     |              
L  4     1           4     1 1 1       4 
   2     1           2     1 1 1       2 
   3     2           3     2 2 2       3 

29     / 3 \                   D.S. al fine 
E|-------0-0-0-------------------------------| 
B|-1-----1-1-1-3-----1-----0-----------------| 
G|-0-----0-0-0-2-----0-----------2-----------| 
D|-2-----------3-----2-----0-----------------| 
A|-------------------------0-----------------| 
E|-------------------------------------5-----| 


                                                    Solo 

E|------|------|-8------8---12--|-10--8---10----------10---10-8--7--8--|-------|-15----15--18---17---17-15-12-13-| 
B|------|------|----------------|--------------------------------------|-10----|---------------------------------| 
G|------|------|----------------|-------------10--9--------------------|-------|---------------------------------| 
D|------|------|----------------|--------------------------------------|-------|---------------------------------| 
A|------|------|----------------|--------------------------------------|-------|---------------------------------| 
E|------|------|----------------|--------------------------------------|-------|---------------------------------| 

E|-10----10--14---11---10--10-8-----8--|-6-----6--8---10-8---6---|-5-----5----5--6---8--10-8--6--5--| 
B|-------------------------------10----|-------------------------|----8-----------------------------| 
G|-------------------------------------|-------------------------|----------------------------------| 
D|-------------------------------------|-------------------------|----------------------------------| 
A|-------------------------------------|-------------------------|----------------------------------| 
E|-------------------------------------|-------------------------|----------------------------------| 

E|----------5---6--5-------|-------------------5--7--5--------|----------------------------------5--7--| 
B|-8-----8-------------8---|-6--5--6----6--8------------8--6--|-5-------5---5----5---6--8--6--8--------| 
G|-------------------------|----------------------------------|-----7----------------------------------| 
D|-------------------------|----------------------------------|----------------------------------------| 
A|-------------------------|----------------------------------|----------------------------------------| 
E|-------------------------|----------------------------------|----------------------------------------| 

E|-8--7--5----5---7---5---4---5---7---|-5--7--9---9-----15----15---15-13-12-13-|-10----10--10-12-13---13-12-10-13-| 
B|------------------------------------|--------------------14------------------|----------------------------------| 
G|------------------------------------|----------------------------------------|----------------------------------| 
D|------------------------------------|----------------------------------------|----------------------------------| 
A|------------------------------------|----------------------------------------|----------------------------------| 
E|------------------------------------|----------------------------------------|----------------------------------| 

E|-12---12--8--10-12---12-10-8--12-|-10---10--7--8--10---10-8--7--10-|-8----8---5--7--8----8--7--10-8--| 
B|---------------------------------|---------------------------------|---------------------------------| 
G|---------------------------------|---------------------------------|---------------------------------| 
D|---------------------------------|---------------------------------|---------------------------------| 
A|---------------------------------|---------------------------------|---------------------------------| 
E|---------------------------------|---------------------------------|---------------------------------| 

E|-8--7-----------7---------------7---|-7-----5-----5----12--12--|-12--12--12--12--12--12--12--12--12--12--12--| 
B|-------10---10------10--9---10------|--------------------------|---------------------------------------------| 
G|------------------------------------|--------------------------|---------------------------------------------| 
D|------------------------------------|--------------------------|---------------------------------------------| 
A|------------------------------------|--------------------------|---------------------------------------------| 
E|------------------------------------|--------------------------|---------------------------------------------| 

E|-12--10--10--10--10--10--10--10--10--10--10--10--|-10--8---8---8---8---8---8---8---8--8--8--8--| 
B|-------------------------------------------------|---------------------------------------------| 
G|-------------------------------------------------|---------------------------------------------| 
D|-------------------------------------------------|---------------------------------------------| 
A|-------------------------------------------------|---------------------------------------------| 
E|-------------------------------------------------|---------------------------------------------| 

E|-8---7---7---7---7--7--7---7---7---7--7--7--7--|-7---6---6---6--6--6---6---6---6---6--6--6--6--| 
B|-----------------------------------------------|-----------------------------------------------| 
G|-----------------------------------------------|-----------------------------------------------| 
D|-----------------------------------------------|-----------------------------------------------| 
A|-----------------------------------------------|-----------------------------------------------| 
E|-----------------------------------------------|-----------------------------------------------| 

E|-6---5---5---5---5---5---5---5---5--5--5--5--|-5---4---7---6--6--10--9--9--12--11--12--12--| 
B|---------------------------------------------|---------------------------------------------| 
G|---------------------------------------------|---------------------------------------------| 
D|---------------------------------------------|---------------------------------------------| 
A|---------------------------------------------|---------------------------------------------| 
E|---------------------------------------------|---------------------------------------------| 

E|-12--12-15-13---13-12-12----|-12--12--12--12--12--12--12--12--15--13--12--|-12--10--10--10--10--10-10-10--10-10-13--12--10--| 
B|----------------------------|---------------------------------------------|-------------------------------------------------| 
G|----------------------------|---------------------------------------------|-------------------------------------------------| 
D|----------------------------|---------------------------------------------|-------------------------------------------------| 
A|----------------------------|---------------------------------------------|-------------------------------------------------| 
E|----------------------------|---------------------------------------------|-------------------------------------------------| 

E|-10--8---8---8---8---8---8---8--8--12--10--8---|-8---7---7---7---7---7---7---7--7--10--8---4---| 
B|-----------------------------------------------|-----------------------------------------------| 
G|-----------------------------------------------|-----------------------------------------------| 
D|-----------------------------------------------|-----------------------------------------------| 
A|-----------------------------------------------|-----------------------------------------------| 
E|-----------------------------------------------|-----------------------------------------------| 

E|-7---5---5---5---5---5---5---5---5---5---|-5---5---5---5---5---5---5---5---5---5---5---5---| 
B|-----------------------------------------|-------------------------------------------------| 
G|-----------------------------------------|-------------------------------------------------| 
D|-----------------------------------------|-------------------------------------------------| 
A|-----------------------------------------|-------------------------------------------------| 
E|-----------------------------------------|-------------------------------------------------| 

E|-5---5---5---5---5---5-----|-5----5-----7----|-8------8---12--|-10--8---10----------10---10-8--7--8--| 
B|---------------------------|-----------------|----------------|--------------------------------------| 
G|---------------------------|-----------------|----------------|-------------10--9--------------------| 
D|---------------------------|-----------------|----------------|--------------------------------------| 
A|---------------------------|-----------------|----------------|--------------------------------------| 
E|---------------------------|-----------------|----------------|--------------------------------------| 

E|-------|-15----15--18---17---17-15-12-13-|-10----10--14---11---10--10-8-----8--| 
B|-10----|---------------------------------|-------------------------------10----| 
G|-------|---------------------------------|-------------------------------------| 
D|-------|---------------------------------|-------------------------------------| 
A|-------|---------------------------------|-------------------------------------| 
E|-------|---------------------------------|-------------------------------------| 

E|-6-----6--8---10-8---6---|-5-----5----5--6---8--10-8--6--5--|----------5---6--5-------| 
B|-------------------------|----8-----------------------------|-8-----8-------------8---| 
G|-------------------------|----------------------------------|-------------------------| 
D|-------------------------|----------------------------------|-------------------------| 
A|-------------------------|----------------------------------|-------------------------| 
E|-------------------------|----------------------------------|-------------------------| 

E|-------------------5--7--5--------|----------------------------------5--7--|-8--7--5----5---7---5---4---5---7---| 
B|-6--5--6----6--8------------8--6--|-5-------5---5----5---6--8--6--8--------|------------------------------------| 
G|----------------------------------|-----7----------------------------------|------------------------------------| 
D|----------------------------------|----------------------------------------|------------------------------------| 
A|----------------------------------|----------------------------------------|------------------------------------| 
E|----------------------------------|----------------------------------------|------------------------------------| 

E|-7-----5-----|-5----17----| 
B|-------------|------------| 
G|-------------|------------| 
D|-------------|------------| 
A|-------------|------------| 
E|-------------|------------| 
	  

Search Paypal
auto scroll beats size up size down change color hide chords drawings
tab show chords e-chords YouTube Clip e-chords hide all tabs e-chords go to top tab