Heaven's Basement

Fire, Fire

Heaven's Basement

tabs Advanced advanced

by  EDSOOLIVEIRA

save to print version add songbook text version e-mail correct tuner
chordsukulelecavacokeyboardtabbassdrumsharmonicaflute Guitar Pro
close

there isn't a video lesson for this song

chords

Fire, Fire

	  		

INTRO 
gtr1, gtr 2 plays the same after 2 times through 
e-----------------| 
B-----------------| 
G-9--7--9--7--9-7-| X3 
D-9--7--9--7--9-7-| 
A-----------------| 
E-----------------| 
gtr 1 & 2 
e-----------------| 
B-----------------| 
G-9--7--9---------| 
D-9--7--9--5---5--| 
A----------5---5--| 
E----------3---3--| 
gtr 1 & 2 
e-----------------------| 
B-----------------------| 
G-----------------------| 
D-----------------------| X4 
A----5h7p5p0------------| 
E-0-0-------005h7003h50-| 
pm  .       ..   ..   . 

VERSE 
gtr 1 & 2 
e-------------------------------------| 
B-------------------------------------| 
G-------------------------------------| 
D-------------------------------------| 
A-------------------------------------| 
E-0-03-05--03-05--03-05-0-<3><3><3>3>-| 
pm  .  .   .  .   .  . 
e-------------------------------------| 
B-------------------------------------| 
G-------------------------------------| 
D-------------------------------------| 
A-------------------------------------| 
E-0-03-05--03-05--03-05-0-<2><2><2>2>-| 
pm  .  .   .  .   .  . 
e-------------------------------------| 
B-------------------------------------| 
G-------------------------------------| 
D-------------------------------------| 
A----5--7---5--7---5--7---------------| 
E-0-03-05--03-05--03-05-0-<3><3><3>3>-| 

e-------------------------------------| 
B-------------------------------------| 
G-------------------------------------| 
D-------------------------------------| 
A----5--7---5--7---5--7---------------| 
E-0-03-05--03-05--03-05-0-<2><2><2>2>-| 

CHORUS 
gtr 1 
e-----------------| 
B-----------------| 
G-9-7-9-7-9-7-9-7-| 
D-9-7-9-7-9-7-9-7-| X2 
A-----------------| 
E-----------------| 
gtr 2 
e----------| 
B----------| 
G-5------7-| 
D-5------7-| 
A-3------5-| 
E----------| 
gtr 1 & 2 
e-----------------| 
B-----------------| 
G-9--7--9--7--9-7-| X2 
D-9--7--9--7--9-7-| 
A-7--5--7--5--7-5-| 
E-----------------| 
gtr 1 
e-----------------| 
B-----------------| 
G-9-7-9-7-9-7-9-7-| 
D-9-7-9-7-9-7-9-7-| X2 
A-----------------| 
E-----------------| 
gtr 2 
e----------| 
B----------| 
G-5------7-| 
D-5------7-| 
A-3------5-| 
E----------| 
gtr 1 & 2 
e-----------------| 
B-----------------| 
G-9--7--9--7--9-7-| X2 
D-9--7--9--7--9-7-| 
A-7--5--7--5--7-5-| 
E-----------------| 
gtr 1 & 2 
e----------------| 
B----------------| 
G----------------| 
D-5-------2----7-| 
A-5-------2----7-| 
E-3-------0----5-| 
gtr 1 
e-----------------| 
B-----------------| 
G-9-7-9-7-9-7-9-7-| 
D-9-7-9-7-9-7-9-7-| X2 
A-----------------| 
E-----------------| 
gtr 2 
e----------| 
B----------| 
G-5------7-| 
D-5------7-| 
A-3------5-| 
E----------| 

PREVERSE 
gtr 1 
e----------------------| 
B----------------------| 
G---7b9r7--------------| 
D--------9--7h9--7p5---| 
A-7-------77---77---77-| 
E----------------------| 
pm        ..   ..   . 
followed by a pause, then 
gtr 1 & 2 
e-----------------------| 
B-----------------------| 
G-----------------------| 
D-----------------------| X2 
A----5h7p5p0------------| 
E-0-0-------005h7003h50-| 
pm  .       ..   ..   . 

VERSE 
gtr 1 & 2 
e-------------------------| 
B-------------------------| 
G-------------------------| 
D-------------------------| X2 
A-------------------------| 
E-0-03-05--03-05--03-05-0-| 
pm  .  .   .  .   .  . 
e-------------------------------------| 
B-------------------------------------| 
G-------------------------------------| 
D-------------------------------------| 
A----5--7---5--7---5--7---------------| 
E-0-03-05--03-05--03-05-0-<3><3><3>3>-| 

e-------------------------------------| 
B-------------------------------------| 
G-------------------------------------| 
D-------------------------------------| 
A----5--7---5--7---5--7---------------| 
E-0-03-05--03-05--03-05-0-<2><2><2>2>-| 

CHORUS 
gtr 1 
e-----------------| 
B-----------------| 
G-9-7-9-7-9-7-9-7-| 
D-9-7-9-7-9-7-9-7-| X2 
A-----------------| 
E-----------------| 
gtr 2 
e----------| 
B----------| 
G-5------7-| 
D-5------7-| 
A-3------5-| 
E----------| 
gtr 1 & 2 
e-----------------| 
B-----------------| 
G-9--7--9--7--9-7-| X2 
D-9--7--9--7--9-7-| 
A-7--5--7--5--7-5-| 
E-----------------| 
gtr 1 
e-----------------| 
B-----------------| 
G-9-7-9-7-9-7-9-7-| 
D-9-7-9-7-9-7-9-7-| X2 
A-----------------| 
E-----------------| 
gtr 2 
e----------| 
B----------| 
G-5------7-| 
D-5------7-| 
A-3------5-| 
E----------| 
gtr 1 & 2 
e-----------------| 
B-----------------| 
G-9--7--9--7--9-7-| X2 
D-9--7--9--7--9-7-| 
A-7--5--7--5--7-5-| 
E-----------------| 
gtr 1 & 2 
e----------------| 
B----------------| 
G----------------| 
D-5-------2----7-| 
A-5-------2----7-| 
E-3-------0----5-| 
gtr 1 
e-----------------| 
B-----------------| 
G-9-7-9-7-9-7-9-7-| 
D-9-7-9-7-9-7-9-7-| X2 
A-----------------| 
E-----------------| 
gtr 2 
e----------| 
B----------| 
G-5------7-| 
D-5------7-| 
A-3------5-| 
E----------| 

BRIDGE 
gtr 2 
e---------| 
B---------| 
G-5--4--7-| 
D-5--4--7-| until the bridge finishes 
A-3--2--5-| 
E---------| 

e---------| 
B---------| 
G-5--4----| 
D-5--4--2-| on the last time through 
A-3--2--2-| 
E-------0-| 

gtr 1  
e--------2-|-3p2-0----|--------2-|-0----------| 
B---1--1-3-|----3-3-3-|---1--1-3-|--3---------| 
G--0--0--2-|-------2--|--0--0--2-|---20h2p0-0-| 
D--------0-|----------|--------0-|---------4--| 
A-3--2-----|----------|-3--2-----|------------| 
E----------|----------|----------|------------| 

e--------2-|-2h3p2-------------|--------2-|---------------| 
B---1--1-3-|------3-3h5p3------|---1--1-3-|-------3-------| 
G--0--0--2-|-------------4-2-0-|--0--0--2-|-0-2/4---4/2-0-| 
D--------0-|-------------------|--------0-|---------------| 
A-3--2-----|-------------------|-3--2-----|---------------| 
E----------|-------------------|----------|---------------| 

e--------2-|-0---------|--------2-|---------------| 
B---1--1-3-|--3--------|---1--1-3-|-------3-------| 
G--0--0--2-|---2-2p0-0-|--0--0--2-|-0-2/4---4/2-0-| 
D--------0-|--------4--|--------0-|---------------| 
A-3--2-----|-----------|-3--2-----|---------------| 
E----------|-----------|----------|---------------| 

e--------2-|-2h3p2--------|--------2-| 
B---1--1-3-|------3-------|---1--1-3-| 
G--0--0--2-|-------4p2----|--0--0--2-| 
D--------0-|----------5p2-|--------0-| 
A-3--2-----|--------------|-3--2-----| 
E----------|--------------|----------| 
then distortion kicks in 
e------|-10-10101010101010-|-15b17--13h15p13-15b17-13h15p13----| 
B------|-13b15151515151515-|-------------------------------15~-| 
G------|-------------------|-----------------------------------| 
D-12~/-|-------------------|-----------------------------------| 
A------|-------------------|-----------------------------------| 
E------|-------------------|-----------------------------------| 

e-20b22----------------20b22-20b22-20b22-| 
B------2022p2018b19----------------------| 
G------------------19~-------------------| 
D----------------------------------------| 
A----------------------------------------| 
E----------------------------------------| 
after this, play guitar 2's part until solo 

SOLO 
gtr 2 
e-------------------------------------------| 
B-------------------------------------------| 
G-4444444433332222--------------------------| 
D-4444444433332222--------------------------| X2 
A-2222222211110000----7-----7------7------7-| 
E-----------------0-0--00-00--00-00--00-00--| 

e------------------| 
B------------------| 
G-4444444433332222-| 
D-4444444433332222-| 
A-2222222211110000-| 
E------------------| 

gtr 1` 
e-------------------------------------------------------| 
B-------12-7-----------12-------------------------------| 
G-14-14----9b11--14-14-14b16-14-16-14-14b16-12-11h12p11-| 
D-------------------------------------------------------| 
A-------------------------------------------------------| 
E-------------------------------------------------------| 

e-14b15-14b1514b1514b15-15-17-17-17p15-17b19-17b19-17-15-14-15-14--------| 
B----------------------------------------------------------------1515b17-| 
G------------------------------------------------------------------------| 
D------------------------------------------------------------------------| 
A------------------------------------------------------------------------| 
E------------------------------------------------------------------------| 

e------------|-----then-22b24-| 
B---12h15p12-|-X14------------| 
G-15---------|----------------| 
D------------|----------------| 
A------------|----------------| 
E------------|----------------| 

CHORUS 
gtr 1 & 2 
e-----------------| 
B-----------------| 
G-9--7--9--7--9-7-| X2 
D-9--7--9--7--9-7-| 
A-7--5--7--5--7-5-| 
E-----------------| 
gtr 1 
e-----------------| 
B-----------------| 
G-9-7-9-7-9-7-9-7-| 
D-9-7-9-7-9-7-9-7-| X2 
A-----------------| 
E-----------------| 
gtr 2 
e----------| 
B----------| 
G-5------7-| 
D-5------7-| 
A-3------5-| 
E----------| 
gtr 1 & 2 
e-----------------| 
B-----------------| 
G-9--7--9--7--9-7-| X2 
D-9--7--9--7--9-7-| 
A-7--5--7--5--7-5-| 
E-----------------| 
gtr 1 & 2 
e----------------| 
B----------------| 
G----------------| 
D-5-------2----7-| 
A-5-------2----7-| 
E-3-------0----5-| 
gtr 1 
e-----------------| 
B-----------------| 
G-9-7-9-7-9-7-9-7-| 
D-9-7-9-7-9-7-9-7-| X2 
A-----------------| 
E-----------------| 
gtr 2 
e----------| 
B----------| 
G-5------7-| 
D-5------7-| 
A-3------5-| 
E----------| 

OUTRO 
gtr 1 
e-----------------| 
B-----------------| 
G-9--7--9--7--9-7-| X2 
D-9--7--9--7--9-7-| 
A-----------------| 
E-----------------| 

gtr 1 & 2 
e-----------------| 
B-----------------| 
G-9--7--9--7--9-7-| X2 
D-9--7--9--7--9-7-| 
A-----------------| 
E-----------------| 

gtr 1 & 2 
e-----------------| 
B-----------------| 
G-9--7--9--7--9-7-| X3 
D-9--7--9--7--9-7-| 
A-7--5--7--5--7-5-| 
E-----------------| 

gtr 1 & 2 
e------------| 
B------------| 
G-9--7--9----| 
D-9--7--9--2-| 
A-7--5--7--2-| 
E----------0-| 
		  

See also:

tabs Bruce Dickinson - Tears of the Dragon (ver. 2) tabs Iron Maiden - The Number Of The Beast tabs Bruce Dickinson - Tears Of The Dragon Solo tabs Ozzy Osbourne - Iron Man tabs Iron Maiden - Brave New Word tabs Ozzy Osbourne - Bark at the Moon
e-chords

Other versions:

tabs Flyleaf - Fire Fire tabs Heaven's Basement - Fire, Fire
auto scroll beats size up size down change color hide chords drawings
tab show chords e-chords YouTube Clip e-chords hide all tabs e-chords go to top tab

share