H.E.A.T

Too Far On The Wild Side

H.E.A.T

tabs

by  AMAN_CLAUDINO

save to print version add songbook text version e-mail correct tuner
chordsukulelecavacokeyboardtabbassdrumsharmonicaflute Guitar Pro
close

there isn't a video lesson for this song

chords

Too Far On The Wild Side

	  		
Intro.: 

|-------------------------------------------------------------------------------------- 
|-------------------------------------------------------------------------------------- 
|------------------2----------5-5----2--------2---5------------------------------------ 
|-5...-----------2-2-3------5-5----2-3-5----2-5-5-3-5-------------------------------- 
|-5...-----------0-2-3--3--------0-3-5----0-5-3-3-5-------------------------------- 
|-3...---\\\\\-----0-1---------------1-3------3---1-3-------------------------------- 



1st Verse: 

|-------------------------------------------------------------------------------------- 
|-------------------------------------------------------------------------------------- 
|-------------------------------------------------------------------------------------- 
|-------2...--------5...---5..4..2...--------5...-------------7-5---------- 
|-----0-0...-3...-3...---3..2..0...-3...-3...-5...--3-2-5-3--2-3-5--- 
|-0-3----------1...---------------------------1...--------3...--1-0------0-1-3--- 



Chorus: 

|-------------------------------------------------------------------------------------- 
|-------------------------------------------------------------------------------------- 
|------------------5-5----------------------------------------------------------------- 
|-----2-2----------5-5--2-2--------2---5----------------------------------------------- 
|-----0-0-2-3--3------0-0-3-5----0-5-3-3-5...---------------------------------------- 
|-0-3-----0-1---------------1-3------3---1-3...---------------------------------------- 



2nd Verse: 

|-------------------------------------------------------------------------------------- 
|-------------------------------------------------------------------------------------- 
|-------------------------------------------------------------------------------------- 
|-4...--------7...---7..6..4...--------7...---------------7---------------- 
|-2...-5...-5...---5..4..2...-5...-5...-7...--5-4-2-5--4-5-7--------- 
|--------3...---------------------------3...--------5...--3-2-0----2-3-5--------- 



Chorus: 

|-------------------------------------------------------------------------------------- 
|-------------------------------------------------------------------------------------- 
|-----------------7-7------------------------------------------------------------------ 
|-----4-4---------7-7--4-4--------4-2-7------------------------------------------------ 
|---0-2-2-4-5-5------2-2-5-7----2-0-5-5-7...----------------------------------------- 
|-2-------2-3--------------3-5----------3-5...----------------------------------------- 



Solo 

|-------------------------------------------------------------------------------------- 
|-------------------------------------------------------------------------------------- 
|-------------------------------------------------------------2-2--2-2----2-2---------- 
|----------------4...---------------------------------------2-2--2-2----2-2---------- 
|----------------2...---------------------------------------0-0--0-0----0-0---------- 
|-2/3-2-3--2-3-5----------------------------------------------------------------------- 



Chorus: 

|-------------------------------------------------------------------------------------- 
|-------------------------------------------------------------------------------------- 
|-----------------7-7------------------------------------------------------------------ 
|-----4-4---------7-7--4-4--------4-2-7------------------------------------------------ 
|---0-2-2-4-5-5------2-2-5-7----2-0-5-5-7...----------------------------------------- 
|-2-------2-3--------------3-5----------3-5...----------------------------------------- 



End: 

|-------------------------------------------------------------------------------------- 
|-------------------------------------------------------------------------------------- 
|-------------------------------------------------------------------------------------- 
|----------------0--------------------------------------------------------------------- 
|--------------0---0-9-9-\\\\\\\\\\\--------------------------------------------------- 
|-2/3-2-3------------7-7-\\\\\\\\\\\--------------------------------------------------- 
		  

See also:

tabs Ira! - Poço de Sensibilidade (Solo - Acustico Mtv) tabs Deep Purple - Smoke On The Water tabs Deep Purple - Smoke on the water (intro) tabs Ira! - Eu Quero Sempre Mais (Com Pitty, intro) tabs Deep Purple - Smoke on the Water (ver. 2) tabs Deep Purple - Knocking At Your Back Door
e-chords

Other versions:

tabs H.E.A.T - Too Far On The Wild Side
auto scroll beats size up size down change color hide chords drawings
tab show chords e-chords YouTube Clip e-chords hide all tabs e-chords go to top tab

share