H.E.A.T

Tonight

H.E.A.T

tabs

by  LUCICAMARGO

save to print version add songbook text version e-mail correct tuner
chordsukulelecavacokeyboardtabbassdrumsharmonicaflute Guitar Pro
close

there isn't a video lesson for this song

chords

Tonight

	  		*Korean Bonus track on Freedom Rock 

Palm mute 

(Vibrato) 


Intro.: 

|-------------------------------------------------------------------------------------- 
|-------------------------------------------------------------------------------------- 
|-----------7-5h7------7-5h7--3-----3-2h3------5------3-------------------------------- 
|-----------7-5h7------7-5h7--3-----3-3--------5------3-------------------------------- 
|-0-3-5-5--------5--------1-1--------3----5---------------------------------- 
|-------------------------------------------------------------------------------------- 

|-------------------------------------------------------------------------------------- 
|-------------------------------------------------------------------------------------- 
|-----------7-5h7------7-5h7--3-----3-2h3--5...---------------------------------------- 
|-----------7-5h7------7-5h7--3-----3-3----5...---------------------------------------- 
|-0-3-5-5--------5--------1-1--------3...---------------------------------------- 
|-------------------------------------------------------------------------------------- 



1st Verse: 

Keyboards 


Oh, tonight is the night when I'll be 

coming back for more 

Oh, tonight is the night when I'll be 

knocking on your door 



Bridge: 

|------------------------------------------------------------------------------------- 
|------------------------------------------------------------------------------------- 
|----------8--10--------8--10--8----10-10-10\----------------------------------------- 
|----------8--10--5...--8--10--8----10-10-10\----------------------------------------- 
|----------6--8---5...--6--8---6----8--8--8-\----------------------------------------- 
|-1-3---------3...---------------------------------------------------------------- 


No sleep for the broken hearted 

I'm still hearing your heartbeat calling 

Lost touch by the games you play 

I feel we're slipping away 



Chorus: 

|------------------------------------------------------------------------------------- 
|------------------------------------------------------------------------------------- 
|------------------------------------------------------------------------------------- 
|------------8--8------8------8...---4------4--4-------6------6----------------------- 
|------------8--8------8------8...---4------4--4-------6------6----------------------- 
|-\\\\\--6-------6----6--------2--2--------4----4------------------------- 

|------------------------------------------------------------------------------------- 
|------------------------------------------------------------------------------------- 
|-------------------------------------------------------------------3-----5-----7----- 
|------------8--8------8------8...---4------4--4-------6------6-----3-----5-----7----- 
|------------8--8------8------8...---4------4--4-------6------6---X-1---X-3---X-5----- 
|-\\\\\--6-------6----6--------2--2--------4----4------------------------- 


Hard living, hard to love 

When your loving is the only one 

Hard living, hard to love 

I don't wanna be the only one 



2nd Verse: 

|------------------------------------------------------------------------------------- 
|--------------------------------------------------5-(6)-(6)------------------------ 
|-----7-5h7-------3------3------3-3-------5------5------------------------------------ 
|-----7-5h7-------3------3------3-3-------5------5------------------------------------ 
|-5-------5---1--1----1-------3----3-------------------------------------- 
|------------------------------------------------------------------------------------- 

|------------------------------------------------------------------------------------- 
|--------------------------------------------------------5-(6)-(6)------------------ 
|-----------7-5h7-------3------3------3-3-------5------5------------------------------ 
|-----------7-5h7-------3------3------3-3-------5------5------------------------------ 
|-0-3-5-5-------5---1--1----1-------3----3-------------------------------- 
|------------------------------------------------------------------------------------- 


So tonight, was the night when we went 

went our separate ways 

Yeah tonight, was the night when I found 

Love was just a game 



Bridge: 

|------------------------------------------------------------------------------------- 
|------------------------------------------------------------------------------------- 
|----------8--10--------8--10--8----10-10-10\----------------------------------------- 
|----------8--10--5...--8--10--8----10-10-10\----------------------------------------- 
|----------6--8---5...--6--8---6----8--8--8-\----------------------------------------- 
|-1-3---------3...---------------------------------------------------------------- 


No sleep for the broken hearted 

I've stopped hearing your heartbeat calling 

I'm not turning back again 

I'll be going my way 



Chorus: 

|------------------------------------------------------------------------------------- 
|------------------------------------------------------------------------------------- 
|------------------------------------------------------------------------------------- 
|------------8--8------8------8...---4------4--4-------6------6----------------------- 
|------------8--8------8------8...---4------4--4-------6------6----------------------- 
|-\\\\\--6-------6----6--------2--2--------4----4------------------------- 


Hard living, hard to love 

When your loving is the only one 

Hard living, hard to love 

I don't wanna be the only one 



Solo 

|------------------------------------------------------------------------------------- 
|------------------------------------------------------------------------------------- 
|-------6-------6...-6--6--------------6-------6...----------------------------------- 
|-8--6--6--4----6...-6--6--------8--6--6--4----6...------4...----6...----------------- 
|-8--6--4--4----4...-4--4--------8--6--4--4----4...------4...----6...----------------- 
|-6--4-----2---------------------6--4-----2--------------2...----4...----------------- 

|------------------------------------------------------------------------------------- 
|------------------------------------------------------------------------------------- 
|-----6-5h6------6-5h6----------------------6-5h6------------------------------------- 
|-----6-6--------6-6-----4------4-3h4-------6-6--------------------------------------- 
|-4--------4---------4------4-4-----4------------------------------------------- 
|------------------------2--2--------------------4^v^--6---------------------------- 

|------------------------------------------------------------------------------------- 
|------------------------------------------------------------------------------------- 
|-----6-5h6------6-5h6-------------------6-5h6---------------------------------------- 
|-----6-6--------6-6-----4---4-3h4-------6-6------------------------------------------ 
|-4--------4---------4---4-4-----4---------------------------------------------- 
|------------------------2--2-----------------\\\\\\\------------------------------- 



Chorus: 

|------------------------------------------------------------------------------------- 
|------------------------------------------------------------------------------------- 
|------------------------------------------------------------------------------------- 
|------------8--8------8------8...---4------4--4-------6------6----------------------- 
|------------8--8------8------8...---4------4--4-------6------6----------------------- 
|-\\\\\--6-------6----6--------2--2--------4----4------------------------- 


Hard living, hard to love 

When your loving is the only one 

Hard living, hard to love 

I don't wanna be the only one 



End: 

|------------------------------------------------------------------------------------- 
|------------------------------------------------------------------------------------- 
|-------6----------------------------------------------------------------------------- 
|-8--6--6--4-------------8\\\\\------------------------------------------------------- 
|-8--6--4--4-------------8\\\\\------------------------------------------------------- 
|-6--4-----2-------2--4--6\\\\\------------------------------------------------------- 
		  

See also:

tabs Ira! - Poço de Sensibilidade (Solo - Acustico Mtv) tabs Deep Purple - Smoke On The Water tabs Deep Purple - Smoke on the water (intro) tabs Ira! - Eu Quero Sempre Mais (Com Pitty, intro) tabs Deep Purple - Smoke on the Water (ver. 2) tabs Deep Purple - Knocking At Your Back Door
e-chords

Other versions:

tabs FM Static - Tonight tabs Nick Jonas & The Administration - Tonight tabs Enrique Iglesias - Tonight tabs Seether - Tonight tabs H.E.A.T - Tonight tabs Jett Rebel - Tonight
auto scroll beats size up size down change color hide chords drawings
tab show chords e-chords YouTube Clip e-chords hide all tabs e-chords go to top tab

share