Heartless Bastards

All This Time

Heartless Bastards

tabs

by  GUSTSILVA

save to print version add songbook text version e-mail correct tuner
chordsukulelecavacokeyboardtabbassdrumsharmonicaflute Guitar Pro
close

there isn't a video lesson for this song

chords

All This Time

	  		


listen to song for strumming pattern 
p = pull off 
/ = slide 
x = ghost note 


INTRO/VERSE 

E------------------------------------------------------------| 
B------------------------------------------------------------| 
G----6-6-6--6-6-6p-5-5-5-5--5-5--3-3-3--3-3-x-5-5-5-5--5-5---| 
D----6-6-6--6-6-6--6-6-6-6--6-6--4-4-4--4-4-x-6-6-6-6--6-6---| repeat ~ 
A----4-4-4--4-4-4--4-4-4-4--4-4--4-4-4--4-4-x-6-6-6-6--6-6---| 
E--------------------------------2-2-2--2-2-x-4-4-4-4--4-4---| 

Chorus 

pretty much like the verse, except chords barred 

      C#m                          F#            G#            

E----6-6-6--6-6-6--6-6-6-6--6-6--2-2-2--2-2-2-4-4-4-4--4-4---| 
B----6-6-6--6-6-6--6-6-6-6--6-6--2-2-2--2-2-2-4-4-4-4--4-4---| 
G----6-6-6--6-6-6--6-6-6-6--6-6--3-3-3--3-3-3-5-5-5-5--5-5---| 
D----6-6-6--6-6-6--6-6-6-6--6-6--4-4-4--4-4-4-6-6-6-6--6-6---| repeat ~ 
A----4-4-4--4-4-4--4-4-4-4--4-4--4-4-4--4-4-4-6-6-6-6--6-6---| 
E----4-4-4--4-4-4--4-4-4-4--4-4--2-2-2--2-2-2-4-4-4-4--4-4---| 
		  

Full key step upFull key step up
Half key step upHalf key step up
Half key step downHalf key step down
Full key step downFull key step down
auto scroll beats size up size down change color hide chords drawings
tab show chords e-chords YouTube Clip e-chords hide all tabs e-chords go to top tab

share