Heart

home > Heart

If Looks Could Kill Tab

Heart

Difficulty: ExpertExpert

by danivieira

tuner correct add songbook print version text version save to e-mail
chordsukulelecavacokeyboardtabbassdrumsharmonicsflute Guitar Pro
chords

If Looks Could Kill

  		Intro: 

 P M ( G5 )     G5              Eb5    F5    G5                                

e||--------|--------------|--------|-10b(1/4)-x-10b(1/4)-x-10b(1/4)-x- 
B||--------|--------------|--------|-11b(1/4)-x-11b(1/4)-x-11b(1/4)-x- 
G||--------|--------------|--------|---------------------------------- 
D||--------|-------3\5~~--|--------|---------------------------------- 
A||--------|-3-5h---------|--------|---------------------------------- 
E||--------|--------------|--------|---------------------------------- 

   G5                                    Eb5  F5 

e|-10b(1/4)---------------------------------------| 
B|-11b(1/4)---------------------------------------| 
G|----------pb(10)-r10-pb(10)-r10-10\12~~-----20 
	  

Full key step upFull key step up
Half key step upHalf key step up
Half key step downHalf key step down
Full key step downFull key step down
Search Paypal
auto scroll beats size up size down change color hide chords drawings
tab show chords e-chords YouTube Clip e-chords hide all tabs e-chords go to top tab