Heart

home > Heart

Crazy on you intro Tab

Heart

Difficulty: BeginnerBeginner

by evilguitarist

tuner correct add songbook print version text version save to e-mail
chordsukulelecavacokeyboardtabbassdrumsharmonicsflute Guitar Pro
chords

Crazy on you intro

  		               /-slide 
               h-hamer on 
               p-pull off 
               hr-hermonics 

         1 
E---------------------------5--- 
B-----3p-1-------------3----5--- 
G----------2-----0-----4----5--- 
D------------2/4-------4----5--- 
A-0-0---------------0----0------ 
E------------------------------- 

         2   
E--------------------------------------------- 
B-----3p-1------------------------------------ 
G----------2-----0-----------7---5---4----0--- 
D------------2/4--4----4/2---7---5---5----0-- 
A-0-0---------------0h5/3--------------------- 
E--------------------------0---0---0----0h3--- 

         1 
E---------------------------5--- 
B-----3p-1-------------3----5--- 
G----------2-----0-----4----5--- 
D------------2/4-------4----5--- 
A-0-0---------------0----0------ 
E------------------------------- 



            3 
E----------------------------------- 
B-----3p1--------------------------- 
G---------2-----0------------------- 
D-----------2/4---4---4/2-2---2----- 
A-0-0---------------0h5/3---0---0--- 
E----------------------------------- 


          1 
E---------------------------5--- 
B-----3p-1-------------3----5--- 
G----------2-----0-----4----5--- 
D------------2/4-------4----5--- 
A-0-0---------------0----0------ 
E------------------------------- 
           
            4 
E-----------------------------------hr12---0-0-0--- 
B-----3p1------------3---5---7------hr12---0-0-0--- 
G---------2-----0-------------------hr12---0-0-0--- 
D-----------2/4--------4---4---0----hr12---0-0-0--- 
A-0-0-------------0------0---0---0---------0-0-0--- 
E------------------------------------------0-0-0--- 

         1 
E---------------------------5--- 
B-----3p-1-------------3----5--- 
G----------2-----0-----4----5--- 
D------------2/4-------4----5--- 
A-0-0---------------0----0------ 
E------------------------------- 

          

            5 
E-----------3-1-0-------------------------hr12--- 
B-----3p1---------3-1-0-----------5p-3----hr12--- 
G---------2-------------2-0------------4--hr12--- 
D----------------------------4------------hr12--- 
A-0-0---------------------------0---------------- 
E------------------------------------------------ 

           6 
E-0--1-0------0------------- 
B---------0h1--------------- 
G---------------1----------- 
D-----------------2--------- 
A-------------------3------- 
E---------------------4-0--- 

      ANY QUESTION, COMMENTS OR CORECTIONS MY E-MAIL  
IS [email protected] HOPE YOU ALL ENJOYED IT 

	  

Search Paypal
auto scroll beats size up size down change color hide chords drawings
tab show chords e-chords YouTube Clip e-chords hide all tabs e-chords go to top tab