Havok

The Cleric

Havok

tabs Expert expert

by  TAMAMOREIRA

save to print version add songbook text version e-mail correct tuner
chordsukulelecavacokeyboardtabbassdrumsharmonicaflute Guitar Pro
close

there isn't a video lesson for this song

chords

The Cleric

	  		


Riff1 (0:10)             Ending 
----------------------...-------------| 
----------------------...-------------| 
----------------------...-------------| 
----------------------...-----3-------| 
-22-22-22-22-22-22-22-...2----1----3--| 
-00-00-00-00-00-00-00-...0--0------1--| 
 ** ** ** ** ** ** **       * 

Riff2 (0:18) 
----------------| 
----------------| 
-9/1010---------| 
---------10-9---| 
-7/8-8----------| 
---------8--7---| 


Riff3 (0:48) 
------------------------------------------------------|----| 
------------------------------------------------------|----| 
---------------------6p5p4-0--------------------------|----| 
------------------------------------------------------|----| 
-5--5-5--5-5--5-5--5---------6--6-6--6-6--6-6--6--6-6-|8-8-| 
-3--3-3--3-3--3-3--3---------4--4-4--4-4--4-4--4--4-4-|6-6-| 
    *    *    *    *            *    *    *    * 

Riff4 (1:03) 
------------------------------| 
------------------------------| 
------------------------------| 
-5----7---8---10-----5--4--7--| 
-3----5---6---8--6---3--2--5--| 
-----------------4------------| 


Riff5 (1:19) 
-----------------------------------------------------------------| 
-----------------------------------------------------------------| 
----------------------13--12---------------------------13--------| 
-13---15--17--18--------------12--13--15--17--18-----------12----| 
-----------------15-------------------------------15----------12-| 
-----------------------------------------------------------------| 


Riff6 (1:35) 
------------------------------------------------------------------------------------| 
------------------------------------------------------------------------------------| 
------------------------------------------------------------------------------------| 
-----------------------------------------2----------------------------------------3-| 
--------------------3--------------------1--------------------3----5----4----3----1-| 
-0000-0000-0000-00001-0000-0000-0000-0000--0000-0000-0000-00001-0003-0002-0001-000--| 
 **** **** **** ****  **** **** **** ****  **** **** **** ****  ***  ***  ***  *** 

Riff7 (1:50) 
-------------------------------------------------------------| 
-------------------------------------------------------------| 
-------16-15--------------------------16-15------------------| 
-17-16------17-16-17-16----16~~-17-16-------17-16-17-16------| 
------------------------15------------------------------15---| 
-------------------------------------------------------------| 

Riff8 (3:22) 
------------------------------------------| 
------------------------------------------| 
------------------------------------------| 
----------------------------------------3-| 
----------------------------------------1-| 
-0-0000-0--0-0000-0--0-0000-0--0-0000-0---| 
 * **** *  * **** *  * **** *  * **** * 


Riff9 (4:06) 
--------------------------------------------------------------------| 
-------------14----------------------------------14-----------------| 
-------15-14----14-15----------------------15-14----14-15-----------| 
-15-14----------------14-15----------15-14----------------14-15-14~-| 
----------------------------13-15-16--------------------------------| 
--------------------------------------------------------------------| 

--------------------------------------------------------------------| 
-------------15----------------------------------15-----------------| 
-------16-15----15-16----------------------16-15----15-16-----------| 
-16-15----------------15-16----------16-15----------------15-16-15~-| 
----------------------------14-16-17--------------------------------| 
--------------------------------------------------------------------| 

--------------------------------------------------------------------| 
-------------17----------------------------------17-----------------| 
-------18-17----17-18----------------------18-17----17-18-----------| 
-18-17----------------17-18----------18-17----------------17-18-17~-| 
----------------------------16-18-19--------------------------------| 
--------------------------------------------------------------------| 
		  

auto scroll beats size up size down change color hide chords drawings
tab show chords e-chords YouTube Clip e-chords hide all tabs e-chords go to top tab

share