Hateen

1997

Hateen

tabs Easy easy

by  PEUCAIO

save to print version add songbook text version e-mail correct tuner
chordsukulelecavacokeyboardtabbassdrumsharmonicaflute Guitar Pro
close

there isn't a video lesson for this song

chords

1997

	  		Hateen - 1997 
--------------- 
 
O Hateen agora está afinando a guitarra meio tom pra baixo. 
Se quiserem tocar no mesmo tom da música original, afinem meio tom pra baixo, mas sem afinar fica ótimo também. 
 
Ouçam a música pra pegar o ritmo! 
 
 
 
 
(ABAFADO) 
1x 
   E  E  C# B  A  E 
|---------------------- 
|---------------------- 
|--9-----6--4--2------- 
|--9--9--6--4--2--2---- 
|--7--6--4--2--0--2---- 
|-----------------0---- 
 
"Mil novecentos e noventa e sete, 
novembro ainda me lembro, 
era fim de ano, eu não tinha nada e você um novo emprego, 
foi quando tudo aconteceu..." 
 
 
 
 
(INICIA BATIDA DA MÚSICA) 
1x 
   E  E  C# B  A  E 
|---------------------- 
|---------------------- 
|--9-----6--4--2------- 
|--9--9--6--4--2--2---- 
|--7--6--4--2--0--2---- 
|-----------------0---- 
 
"A vida era difícil mas juntos tudo estava bem, 
algumas brigas claro mas isso é tão normal 
quando se quer alguém, 
como eu quis você" 
 
 
 
 
2x                                                          
   B 
|--------------------------|--------------------------| 
|--------------------------|--------------------------| 
|--4--4--4--4--4--4--4--4--|--4--4--4--4--4--4--4--4--| 
|--4--4--4--4--4--4--4--4--|--4--4--4--4--4--4--4--4--| 
|--2--2--2--2--2--2--2--2--|--2--2--2--2--2--2--2--2--| 
|--------------------------|--------------------------| 
              
   A                                                     E 
|--------------------------|--------------------------|--------------------| 
|--------------------------|--------------------------|--------------------| 
|--2--2--2--2--2--2--2--2--|--2--2--2--2--2--2--2--2--|--9--9--9--9--9--9--| 
|--2--2--2--2--2--2--2--2--|--2--2--2--2--2--2--2--2--|--9--9--9--9--9--9--| 
|--0--0--0--0--0--0--0--0--|--0--0--0--0--0--0--0--0--|--7--7--7--7--7--7--| 
|--------------------------|--------------------------|--------------------| 
 
   B                         A 
|--------------------------|--------------------------| 
|--------------------------|--------------------------| 
|--4--4--4--4--4--4--4--4--|--2--2--2--2--2--2--2--2--| 
|--4--4--4--4--4--4--4--4--|--2--2--2--2--2--2--2--2--| 
|--2--2--2--2--2--2--2--2--|--0--0--0--0--0--0--0--0--| 
|--------------------------|--------------------------| 
 
 
"E encontrava companhia, 
num copo de bebida, 
num cigarro ou outra droga qualquer, 
já que não tinha mais vocêêê..." 
(PARA BATIDA E DEIXA SOAR) 
 
 
BASE DO SOLINHO 
1x 
   E  E  C# B  A  E 
|---------------------- 
|---------------------- 
|--9-----6--4--2------- 
|--9--9--6--4--2--2---- 
|--7--6--4--2--0--2---- 
|-----------------0---- 
 
 
SOLINHO 
1x 
|------------------------------------------------------------------------------------------------------| 
|------------------------------------------------------------------------------------------------------| 
|------------------------------------------------------------------------------------------------------| 
|--4/6--6b-6/4--4/6--6b-6/4--4/6--6b-6---6/9--7-6--7--7/9--7-6--7--7/9--7-6-7/2--2-2-2-2-4/6--4--4/6---| 
|------------------------------------------------------------------------------------------------------| 
|------------------------------------------------------------------------------------------------------| 
 
 
 
 
VERSO 
2x 
   E  E  C# B  A  E 
|---------------------- 
|---------------------- 
|--9-----6--4--2------- 
|--9--9--6--4--2--2---- 
|--7--6--4--2--0--2---- 
|-----------------0---- 
 
"Reaprender o caminho pra casa não foi algo tão simples, 
nos primeiros dias eu me perdia nos meus passos sem você, 
eu mal sabia o que fazer.. 
 
De vez em quando a gente se encontrava nas escadas, 
eu tentava dizer algo e você sempre 
dava riiiiiisada, 
tudo vai acabar bem.." 
 
 
 
2x                                                          
   B 
|--------------------------|--------------------------| 
|--------------------------|--------------------------| 
|--4--4--4--4--4--4--4--4--|--4--4--4--4--4--4--4--4--| 
|--4--4--4--4--4--4--4--4--|--4--4--4--4--4--4--4--4--| 
|--2--2--2--2--2--2--2--2--|--2--2--2--2--2--2--2--2--| 
|--------------------------|--------------------------| 
 
   A                                                     E              
|--------------------------|--------------------------|--------------------| 
|--------------------------|--------------------------|--------------------| 
|--2--2--2--2--2--2--2--2--|--2--2--2--2--2--2--2--2--|--9--9--9--9--9--9--| 
|--2--2--2--2--2--2--2--2--|--2--2--2--2--2--2--2--2--|--9--9--9--9--9--9--| 
|--0--0--0--0--0--0--0--0--|--0--0--0--0--0--0--0--0--|--7--7--7--7--7--7--| 
|--------------------------|--------------------------|--------------------| 
 
   F#                         E                        F# 
|--------------------------|------------------------|--------------------------| 
|--------------------------|------------------------|--------------------------| 
|--11--11--11--11--11--11--|--9----9--9----9--9--9--|--11--11--11--11--11--11--| 
|--11--11--11--11--11--11--|--9----9--9----9--9--9--|--11--11--11--11--11--11--| 
|--9---9---9---9---9---9---|--7----7--7----7--7--7--|--9---9---9---9---9---9---| 
|--------------------------|------------------------|--------------------------| 
 
"Quase 10 anos depois, 
eu consigo entender, 
que eu tinha que continuar, 
fosse com ou sem você, 
 
Nem sei como cheguei aqui, 
mas saiba que eu estou feliiiiiz! 
A sua falta quase me matou, 
hoje eu tenho tudo o que eu 
sempre quiiiiiiiiiiiiiiis aaaaaaah! 
 
   E              E/F#                      E              E/F# 
|--------------------------------------------------------------------------------------| 
|--------------------------------------------------------------------------------------| 
|--9--9--9--9--9--9/11--11--11--11--11--11--9--9--9--9--9--9/11--11--11--11--11--11----| 
|--------------------------------------------------------------------------------------| 
|--7--7--7--7--7--7/9---9---9---9---9---9---7--7--7--7--7--7/9---9---9---9---9---9-----| 
|--------------------------------------------------------------------------------------| 
 
   B         A    A/B         A 
|-----------------------------------------| 
|-----------------------------------------| 
|--16--16----14--13--16--16----14--13-----| 
|-----------------------------------------| 
|--14--14----12--11--14--14----12--11-----| 
|-----------------------------------------| 
 
 
"Mil novecentos e noventa e sete, 
ainda me lembro, 
de tudo que eu quero esqueceeeeeeer..." 
 
   E 
|--------0----| 
|--------0----| 
|-------------| 
|--2--2-------| 
|--2--2-------| 
|--0--0-------| 
 
 
(ABAFADO) 
Solte o abafado com tocar o Mi (E) e toque as duas primeiras cordas, deixando soar. 
1x 
   E  E  C# B  A  E 
|-----------------------0---| 
|-----------------------0---| 
|--9-----6--4--2------------| 
|--9--9--6--4--2--2--2------| 
|--7--6--4--2--0--2--2------| 
|-----------------0--0------| 
 

		  

Full key step upFull key step up
Half key step upHalf key step up
Half key step downHalf key step down
Full key step downFull key step down
hide glossary

See also:

tabs Bon Jovi - Wanted dead or Alive tabs Guns N' Roses - Estranged tabs Kiss - Forever tabs The Doors - Roadhouse Blues tabs Guns N' Roses - Bohemian Rhapsody tabs Van Halen - Pretty Woman
e-chords

Other versions:

tabs Darvin - 1997 tabs Hateen - 1997
auto scroll beats size up size down change color hide chords drawings
tab show chords e-chords YouTube Clip e-chords hide all tabs e-chords go to top tab

share