Harry Potter

Harry Potter Theme Tab

Harry Potter

Difficulty: BeginnerBeginner

by tarikike

tuner correct add songbook print version text version save to e-mail
chordsukulelecavacokeyboardtabbassdrumsharmonicsflute Guitar Pro
close

there isn't a video lesson for this song

chords

Harry Potter Theme

Year: 1999 -

  		   

G|-------------------------------------------|   
D|-------------------------------------------|   
A|-------------------------------------------|   
E|-------------------------------------------|   
   



e|----0-3-2-0-7-10-9-8--5-8-7-6-----0--------|   
B|---0--------------------------8-7----------|   
G|-------------------------------------------|   
D|-------------------------------------------|   
A|-------------------------------------------|   
E|-------------------------------------------|   
   


   
e|----7-7-8-7-6-----7-6-2---7----------------|   
B|---8-8-8------7-8-------8------------------|   
G|-------------------------------------------|   
D|-------------------------------------------|   
A|-------------------------------------------|   
E|-------------------------------------------|   
   

   
E|------7--7--10-9-8-5-8-7-6-----0-----------|   
B|----8--8--8----------------7-8-------------|   
G|-------------------------------------------|   
D|-------------------------------------------|   
A|-------------------------------------------|   
E|-------------------------------------------|   


	  

auto scroll beats size up size down change color hide chords drawings
tab show chords e-chords YouTube Clip e-chords hide all tabs e-chords go to top tab

share with facebook

Search Paypal