Harpa Cristã

home > Harpa Cristã

Ver-nos-emos Tab

Harpa Cristã

Difficulty: nolevelnolevel

by andrsouza

tuner correct add songbook print version text version save to e-mail
chordsukulelecavacokeyboardtabbassdrumsharmonicsflute Guitar Pro
chords

Ver-nos-emos

  		E|-------------4-6-|-8-------4----|---------4-6-4---|--------------| 
B|-4----4--6-4-4---|-4------------|-6----8--6-6-6-6-|-4------------| 
G|-5----5--6-5---8-|---------5----|-6----8--6-6-6-6-|-5------------| 
D|-6----6--6-6-6-5-|-6-------6----|-6----6--------6-|-6------------| 
A|---------------6-|--------------|---------4-4-4-4-|--------------| 
E|-4----4--4-4-8---|---------4----|-9----9----------|-4------------| 

E|-8----6--4-3-4-8-|-6------------|------4-----9--8-----|-4---------------| 
B|-4----4--4-4-4-4-|-6-------6----|-8----1--11-------11-|---------------4-| 
G|------6--5-------|---------6----|-6----1--0--10-8--0--|-5-----------5-5-| 
D|-6-----------6-6-|-6-------8----|-8----1--11-------11-|-6-----------6-6-| 
A|-----------6-----|--------------|-6----------10-10----|-------------6---| 
E|-4----4--4-6-8-4-|-9-------9----|---------11-11-11-11-|-4-----------4-4-| 

E|-4-4-----------4-|-8-8---------4-8--|-11-11-11-11-11--9--8--|-6---------------| 
B|-------------4---|-4-4-4-4-4-4-4----|-9--9--9--9--9---------|-4-------------4-| 
G|-5-5-5-5-5-5-5-5-|-----5-5-5-5-5-8--|-----------------8--8--|-0-----------5-5-| 
D|-------------6-6-|-6-6-6-6-6-6-6----|-10-10-10-10-10--8-----|-------------6-6-| 
A|-6-6-6-6-6-6-----|---------------11-|-11-11-11-11-11--10-11-|-6-----------6---| 
E|-4-4-4-4-4-4-4-4-|------------------|-----------------------|-------------4-4-| 

E|-4-4-----------4-|-8-8---------4-8--|-11-11-11-11-11-8--6-8-|-4------------| 
B|-------------4-4-|-4-4-4-4-4-4-4----|-9--9--9--9--9--9--8-4-|-4------------| 
G|-5-5-5-5-5-5-5---|-----5-5-5-5-5-8--|----------------8--6-6-|-5------------| 
D|---------------6-|-6-6-6-6-6-6-6----|-10-10-10-10-10--------|--------------| 
A|-6-6-6-6-6-6-6---|---------------11-|-11-11-11-11-------6-6-|--------------| 
E|-4-4-4-4-4-4-4-4-|------------------|-------------11-11-----|-4------------| 
	  

Search Paypal
auto scroll beats size up size down change color hide chords drawings
tab show chords e-chords YouTube Clip e-chords hide all tabs e-chords go to top tab