Harpa Cristă

home > Harpa Cristă

Poder Pentencostal Tab

Harpa Cristă

Difficulty: nolevelnolevel

by gustsilva

tuner correct add songbook print version text version save to e-mail
chordsukulelecavacokeyboardtabbassdrumsharmonicsflute Guitar Pro
chords

Poder Pentencostal

  		 
E|-------------7-5-|-3---3---3-------|-----5---7---3-|-3----5--3-----| 
B|-----------------|-0---0-----3-0---|-8---7---8---6-|-5----5--5---5-| 
G|-------------7-5-|-0---0---0-----7-|-----7---7---4-|-5----5--5---5-| 
D|-------------5---|-----------0---0-|-5-------5---5-|-------------5-| 
A|-----------------|-----------------|-----5---------|-3----3--3---3-| 
E|-----------------|-------------7---|---------------|---------------| 
 

 
E|-------------3-|-3----2--2---5-|-5----3--3---7-|-5----3--2---3-| 
B|-3-------------|-3----3--3---3-|-3----3--3---3-|-2----2--2---2-| 
G|-4-----------4-|-4----2--2---5-|-5----4--4-----|---------2---2-| 
D|-5-----------5-|-0----0--0---0-|-5----5--5---5-|-2----2--------| 
A|---------------|---------------|---------------|-0----0--0---0-| 
E|-3-----------3-|---------------|-------------3-|---------------| 
 

 
E|-5-----------7--|-10--10--10--7-5-|----------------|-3-------7--10--7--| 
B|----------------|-0---0---0-------|-8---5---3----3-|-3---10------------| 
G|-5-----------7--|-7---7---7---7-5-|-0---5---4----4-|-0---7---7------7--| 
D|-0--------------|-------------0---|-9---5---5----5-|-----0------9------| 
A|-9-----------10-|-10--10--10--9---|-7--------------|-----9---10-----10-| 
E|----------------|-----------------|-----8---3----3-|-7-----------------| 
 

 
E|-3---5---3------|-3----7--3----3-|-5-3-3--------3-|-3-2-2-3-5----5-| 
B|-0------------3-|------3--3----3-|-5-5-5-5-3------|-3-3-3-3-3----3-| 
G|-0---5---4----4-|-4-------4------|-5-5-5-5-4----4-|-4-2-2-4-5----5-| 
D|-0---4---5----5-|-5----5---------|-------5-5----5-|-0-0-0-0-0----0-| 
A|-----5----------|----------------|-3-3-3-3--------|----------------| 
E|---------3------|-3----3--3----7-|---------3----3-|----------------| 
 

 
E|-5-3-3-5-7----7--|-10------10---3-|-5-3-3-------------|-10---7--3---5-| 
B|-3-3-3-3-8-------|-0----12-0----3-|-5-5-5-5-0---12-13-|-0----3--3---3-| 
G|-5-4-4-5-7----7--|-0----0--0----4-|-5-5-5-5-0---0-----|-12---0--4---5-| 
D|-5-5-5-5---------|-12---12-12---5-|-------5-12--12----|-0----0--0---0-| 
A|---------10---12-|----------------|-3-3-3-3--------12-|---------------| 
E|-----------------|----------------|-------------------|---------------| 
 

 
E|-3------------| 
B|-3------------| 
G|-4------------| 
D|--------------| 
A|--------------| 
E|-3------------| 
	  

Search Paypal
auto scroll beats size up size down change color hide chords drawings
tab show chords e-chords YouTube Clip e-chords hide all tabs e-chords go to top tab