Harpa Cristã

home > Harpa Cristã

Oh, Que Paz! Tab

Harpa Cristã

Difficulty: nolevelnolevel

by gustsilva

tuner correct add songbook print version text version save to e-mail
chordsukulelecavacokeyboardtabbassdrumsharmonicsflute Guitar Pro
chords

Oh, Que Paz!

  		 
E|-----------------|---------------8-|-6-------3---3-4-|-3---1---1-0-1-3-| 
B|---------------6-|-8---8---8-7-8---|-4---4---4---4-6-|-4---3---3-2-3-3-| 
G|-------------8-8-|-8---8---8-8-8-8-|-0---0---3---3-3-|-3---3---3-3-1-3-| 
D|-------------5-6-|-8---8---8-7-8-6-|-----------------|-----------------| 
A|-------------6-6-|-6---6---6-6-6-6-|-6---6---6---6-6-|-----1---1-1-1-1-| 
E|-----------------|-----------------|-----------------|-6---------------| 
 

 
E|-------------6-6-|-11--10--8-8-6-6-|-----3---1---10-8-|-6----------------| 
B|-4---6---8---8-8-|-13--11--9-9-8-8-|-9---4---1---11-9-|-8---------9----3-| 
G|-0---7---8---8-8-|-8---7---5-5-0-0-|-10--0---1--------|-----------10-5-3-| 
D|-----6---8-------|-10--8---6-6-8-8-|-6---1------------|-----8-8-8----6---| 
A|-3-------6---6-6-|-----------------|-8----------------|------------------| 
E|-----6-----------|-----------------|---------4--------|-----6-6-6----6---| 
 

 
E|-------------6-6-|------6---10---8---|-6------5-6----6----6-|-5-------8---11---| 
B|-------------8-8-|-9----8---11---9---|-8------7-8----8----8-|-6---6-------8----| 
G|-8---------------|-10----------------|----------------------|-----8---8--------| 
D|-8---10--8-------|----0---8----0---8-|------8-5------8------|-----7------------| 
A|-10--11--10------|------8--------8---|-6-10-----6-10---10---|---8---8---8-12-8-| 
E|-11--11--11------|-6--------6--------|----------------------|-8----------------| 
 

 
E|-10-------------------|-11-----------10-8-----|-4-----------4-4-| 
B|--------------11---11-|-8------------8--8--8--|-3---6-4-3---6-6-| 
G|-10-----------13---13-|--------------8--8--8--|-3---3-3-3-------| 
D|------0---8-6----0----|-----8--8--8--------8--|-3---0-----------| 
A|--------8-----8-------|-----------------------|-------3---------| 
E|----6-----------------|-----11-11-11-11-11-11-|---------6-------| 
 

 
E|-10--------8-----|---------------------|-------------------|---------8---11-11-| 
B|-9---------9-6-7-|-8-------------11-9--|-8---11--11--8--8--|-9---11------7--7--| 
G|-------------7-7-|-8---8--8--8---12-10-|-8---12--12--8--8--|-8---8---8---------| 
D|-----8-8-8-8-8-8-|-8------10-8---13-13-|-8---13--13--11-11-|-10--8-------------| 
A|-----------------|-----10--------------|-------------------|-11--10--11--------| 
E|-----6-6-6-6-6-6-|-11--11-11-11--11-11-|-11--11--11--11-11-|-------------------| 
 

 
E|-11--------6-8-10-|-11-----------| 
B|-8---------8-9-11-|-8---7---8----| 
G|------------------|--------------| 
D|-----8-8-8---8----|-8---7---8----| 
A|------------------|--------------| 
E|-----6-6-6---6----|-11--11--11---| 
	  

Search Paypal
auto scroll beats size up size down change color hide chords drawings
tab show chords e-chords YouTube Clip e-chords hide all tabs e-chords go to top tab