Harpa Crist„

” Pai Celeste Tab

Harpa Crist„

Difficulty: nolevelnolevel

by gustsilva

tuner correct add songbook print version text version save to e-mail
chordsukulelecavacokeyboardtabbassdrumsharmonicsflute Guitar Pro
close

there isn't a video lesson for this song

request
chords

” Pai Celeste

  		 
E|-8---6-4---------------------------|-8--7--8--11-----4----4--6-8-6--------| 
B|-4-8---------4----------6-6----4---|-----------------1----3---------------| 
G|---6-6-5-----5----12-0--6-6----5---|-8--7--8--8------1----1--7-7-8--------| 
D|-------------6----11-11-5-6----6---|-----------------3-------6-6-5--------| 
A|-6-6-6-6----------13-13-6----------|-11-11-11-11----------1------6--------| 
E|-4-4-4-4-----4----11-11---4----4---|----------8--------------6-6----------| 
 

 
E|-8---6-4----------8--8--8--11---9---|-8--6----6-------------8-6-4--------| 
B|-4-8---------4----------------------|-------9-------6---9-8--------------| 
G|---6-6-5-----5----8--8--8--11---10--|-8--6--5-7-----7---7-8-8-6-5--------| 
D|-------------6----------------------|-------6-------8---8-8-6-5-6--------| 
A|-6-6-6-6----------11-11-11-11---11--|-11-10-8-8-----------6-6-6----------| 
E|-4-4-4-4-----4-------------8----9---|-11-11---6-----6---6-------4--------| 
 

 
E|-6-6-6-11----------------------------| 
B|-4-4-4--------11---11-14-8--11---9---| 
G|-0-0-0-0------0----0--8--8--8----8---| 
D|-------13-----13---13-8--11-11---10--| 
A|-6-6-6-13-------------------11---11--| 
E|--------------11---11-11-11----------| 
 

 
E|----------13-----11--11-10-8-----11-------|-8-7-8-4----------9--8-9-6--------| 
B|-9--9--9--9-------------------11------14--|-4---4-------4----6--6-6-6----6---| 
G|-10-10-10--------13--13-13-13-13-12---12--|---7---5-----5----------------6---| 
D|-10-10-10-11-----10--10-8--10-12----------|-6-6-6-------6----6--6-6-6----6---| 
A|-8--8--8---------11--11-8--8--13-13-------|-------6--------------------------| 
E|----------9----------------------11-------|-4-4-4-4-----4----9--9-9-9----9---| 
 

 
E|---------------------9--8---------4--------|----------------------------------| 
B|-0--0--0---------9---------9---11-1--------|----------------------------------| 
G|-13-12-10-8----------10-8------0--1--------|----------------------------------| 
D|-0--0--0--10-----10--------10--11-1--------|----------------------------------| 
A|-11-11-11-11-----11--11-11-11--------------|----------------------------------| 
E|----------11-----13--9--11-11--11-4--------|----------------------------------| 
	  

Search Paypal
auto scroll beats size up size down change color hide chords drawings
tab show chords e-chords YouTube Clip e-chords hide all tabs e-chords go to top tab

share with facebook