Harpa Cristã

home > Harpa Cristã

Jerusalém Celestial Tab

Harpa Cristã

Difficulty: nolevelnolevel

by gustsilva

tuner correct add songbook print version text version save to e-mail
chordsukulelecavacokeyboardtabbassdrumsharmonicsflute Guitar Pro
chords

Jerusalém Celestial

  		 
E|-----------------|---------------3-|-1---------1-3-1-|-5---------3-1---| 
B|---------------4-|-3-3-3-3-3-3-4---|---3-3-3-3-------|---4-4-4-4-------| 
G|----------3--5---|---3-3-3-3-------|---3-3-3-3-------|---5-5-5-5-----5-| 
D|-----------------|---3-3-3-3-------|---3-3-3-3-------|---3-3-3-3-------| 
A|-----------------|-----------------|-1---------------|-----------------| 
E|-----------------|-6---------------|-----------------|-1---------------| 
 

 
E|-----------------|---------------3-|-1---------1-3---|-5---------------| 
B|-3-3-3-3-3-----4-|-3-3-3-3-3-3-4---|---3-3-3-3-----6-|---6-6-6-6-6-8---| 
G|---3-3-3-3-3-5---|---3-3-3-3-------|---3-3-3-3-------|---5-5-5-5---5-5-| 
D|---3-3-3-3-------|---3-3-3-3-------|---3-3-3-3-------|---7-7-7-7-----5-| 
A|-----------------|-----------------|-1---------------|---------------7-| 
E|-6---------------|-6---------------|-----------------|-8-------------8-| 
 

 
E|-1---------1-3---|-10---8--------|-8-------------|--------------|-------------| 
B|---1-1-1-1-----6-|-11------11-10-|-8----11-10-8--|-10---8----8--|-6----6--8-6-| 
G|---2-2-2-2-------|------14-14-10-|-8----12-10-8--|-10------8-8--|-7----7--8-7-| 
D|---3-3-3-3-------|-8-------0--8--|------8--8-----|-10---10-7-10-|-8----8--8-8-| 
A|-----------------|------12-13-8--|---------------|-8----8--8-8--|-------------| 
E|-1---------------|-6----8--------|-11---11-11-11-|--------------|-6----6--6-6-| 
 

 
E|-10---10-8--10-|-11------10-8--|-6-----------3-5-|-6------------| 
B|-6----11-10-9--|-8----8--8--8--|-6----6--5-6-5-4-|-3------------| 
G|------10-10-10-|-8----8-----8--|-7----7--6-7-3---|--------------| 
D|-8----8--8--8--|------8--8-----|------8--8-8---3-|-3------------| 
A|---------------|---------------|-8----8--8-8-3---|--------------| 
E|-6-------------|-11---11-11-11-|-----------------|-6------------| 
	  

Search Paypal
auto scroll beats size up size down change color hide chords drawings
tab show chords e-chords YouTube Clip e-chords hide all tabs e-chords go to top tab