Harpa Cristã

home > Harpa Cristã

Está Passando Tab

Harpa Cristã

Difficulty: nolevelnolevel

by gustsilva

tuner correct add songbook print version text version save to e-mail
chordsukulelecavacokeyboardtabbassdrumsharmonicsflute Guitar Pro
chords

Está Passando

  		 
E|----------4-------------|---------------9--11-9--4----|------4-----------------| 
B|----------6--6---6-4----|-6---7--9---------------6--6-|-4--------7--6---4----6-| 
G|-------------6---6-6--6-|-6---8--10-----10-11-10-6--6-|-5----5---5--6---6-6--6-| 
D|----------6--6---6-4----|-6---11-11-----------------6-|-6--------6--6---4----6-| 
A|----------4--4---4-4--8-|---------------11-11-11-4--4-|------6------4---4-8----| 
E|----------------------9-|-9---9--9------9--9--9-------|-4----4---4--------9--9-| 
 

 
E|--------9---9--8--9-8--8------|-4----4------9-----9----| 
B|-9---11--------------------11-|------7------6-----6--6-| 
G|-10--11-10--10-8----8--8---0--|-5----5---------------6-| 
D|-11--11-----------8--------11-|-6-----------6---6-6----| 
A|--------11--11-11---11-11-----|------------------------| 
E|-9---9--9---9--11---11-11--11-|-4----4------9---9-9----| 
 

 
E|---------------------------|----------------------------9--| 
B|-4-----------7------7---9--|---------------9--9--9--9------| 
G|-5-----------8------8------|-10------------10-10-10-10--10-| 
D|-6---6-6-----10--10-10--10-|-11------------11-11-11-11-----| 
A|-------------11--11-11-----|-11--11-11------------------11-| 
E|-4---4-4-------------------|-9---9--9------9--9--9--9---9--| 
 

 
E|-9---8--8-------------------11-|-11--9-9-----9---------6-| 
B|---------------9--9--9--9---7--|-6---6-6-----6-------6-7-| 
G|-10--8--8------11-11-11-11-----|-6-------------------6---| 
D|---------------10-10-10-10--10-|-----6-6-----6---6-6-----| 
A|-11--11-11-----11-11-11-11--11-|-------------------------| 
E|-------------------------------|-9---9-9-----9---9-9-----| 
 

 
E|-4-----------2-----------|----------------------| 
B|-6-----------1---1-1-1---|----------------------| 
G|-6---6-6-----1---------8-|-6--------------------| 
D|-----------------1-1-----|-6---8-6--------------| 
A|-4---4-4-----------------|-8---9-8--------------| 
E|-----------------4-4-----|-9---9-9--------------| 
	  

Search Paypal
auto scroll beats size up size down change color hide chords drawings
tab show chords e-chords YouTube Clip e-chords hide all tabs e-chords go to top tab