Harpa Cristã

Confiante Em Deus Tab

Harpa Cristã

Difficulty: nolevelnolevel

by gustsilva

tuner correct add songbook print version text version save to e-mail
chordsukulelecavacokeyboardtabbassdrumsharmonicsflute Guitar Pro
close

there isn't a video lesson for this song

request
chords

Confiante Em Deus

  		 
E|---------------------|---------11--10----|-6---8---6-----|--------------| 
B|-8---8---11-9--8--9--|-11----------11-13-|-8---9---8---8-|-6------------| 
G|-8---8---12-10-8--10-|-12------12-----13-|-8---8-------8-|-7------------| 
D|-8---8---8-----8-----|----------------10-|---------8---8-|-8------------| 
A|------------13----13-|-13------13--13----|-6---6---6---6-|--------------| 
E|-11--11--11-11-11-11-|-11------11--11-11-|---------------|-6------------| 
 

 
E|---------6---------|-6-------11--11-11-|-10--8---6---5-|-6-----------6-6-| 
B|-8---8---8-9--8-9--|-8-------8---8--8--|---------3---4-|-3-----------3-3-| 
G|-8---8-----10-8-10-|-------------------|-10--10--3---5-|-3-----------3-3-| 
D|-8---8---8-8--8-8--|-8-------8---8--8--|-8---7---3---3-|---------------6-| 
A|-6---6---6-6--6-6--|-6-----------------|-8---8---------|-----------------| 
E|-------------------|---------11--11-11-|---------------|-6---------------| 
 

 
E|-11--11---------|-4-------8---8-8-|-6-------------|-------------6-6-| 
B|---------11-----|-4-------4-------|-8-------9---6-|-8-----------3-3-| 
G|-0---12--12--12-|-5-------5-------|-----8---10--7-|-8-----------3-3-| 
D|-13------13--13-|-----------------|---------8---8-|-8-------------6-| 
A|-13--13------13-|-------------6-6-|-6---10--------|-6---------------| 
E|-----11--11--11-|-4-------4---4-4-|-6---6---6---6-|-----------------| 
 

 
E|-11--11---------|-4-------8---8-8-|-6---6---------|-------------6----| 
B|---------11-----|-4-------4-------|-8-------9---6-|-------------8-9--| 
G|-0---12--12--12-|-5-------5-------|-----8---10--7-|-8-------------10-| 
D|-13------13--13-|-----------------|---------8---8-|-5-----------8-8--| 
A|-13--13------13-|-------------6-6-|-6---10--------|-6-----------6-6--| 
E|-----11--11--11-|-4-------4---4-4-|-6---6---6---6-|------------------| 
 

 
E|------------------------|------6-8-6---6-6-|-11--6---8-6------| 
B|-8--8--8--8--8--------6-|-8-9--8-9-8---8-8-|-----8---9-8-9--8-| 
G|-8--8--8--8--8--10-8--7-|-8-10-8-8-8---8-8-|-12--8---8-8-10-8-| 
D|-8--8--8--8--8--8--8--8-|-8-8--------------|-------------8--8-| 
A|----------------11-10---|-6-6--6-6-6---6-6-|-13--6---6-6-6--6-| 
E|-11-11-11-11-11-11-11-6-|------------------|-11---------------| 
 

 
E|-------------6----|------------------------|------6-8-6---6-6-| 
B|-6-------------9--|-8--8--8--8--8--------6-|-8-9--8-9-8---8-8-| 
G|-7-----------7-10-|-8--8--8--8--8--10-8--7-|-8-10-8-8-8---8-8-| 
D|-8-------------8--|-8--8--8--8--8--8--8--8-|-8-8--------------| 
A|-------------8----|----------------11-10---|-6-6--6-6-6---6-6-| 
E|-6-----------6-6--|-11-11-11-11-11-11-11-6-|------------------| 
 

 
E|-11------------1-|--------------|-4------------|-3------------|--------------| 
B|-8---11-9--8---3-|-4------------|-4------------|-4------------|--------------| 
G|-----8--10-8---1-|-3------------|-5------------|-3------------|--------------| 
D|-8------10-8-----|-5------------|--------------|--------------|--------------| 
A|-----10-11-----1-|-6------------|--------------|-6------------|--------------| 
E|-11--------------|--------------|-4------------|--------------|--------------| 
	  

Search Paypal
auto scroll beats size up size down change color hide chords drawings
tab show chords e-chords YouTube Clip e-chords hide all tabs e-chords go to top tab

share with facebook