Harpa Cristã

Alma Abatida

Harpa Cristã

tabs Beginner beginner

by  MARCIO007

save to print version add songbook text version e-mail correct tuner
chordsukulelecavacokeyboardtabbassdrumsharmonicaflute Guitar Pro
close

there isn't a video lesson for this song

chords

Alma Abatida

(Cenir da Silva/Nei Araujo ( Adaptação ))

	  		Harpa Cristã   
Alma Abatida 193  
  
|------------|------------------|------------------|------------------|  
|------------|----------------3-|-1--1--1--------1-|------------------|  
|----------0-|-2--2--2-----2----|-------------2----|-3--0--0-----0--3-|  
|-------3----|----------3-------|----------3-------|----------2-------|  
|----3-------|------------------|------------------|------------------|  
|------------|------------------|------------------|------------------|  
    1º  Se tu, minh'alma      a Deus suplica          E não recebes, confiando   
    2º        Ele intercede por ti, minha'lma                          Espera nEle com fé e calma  
    3º         Terás em breve as dores findas                       No dia alegre da Sua vinda  
  
|------------------|------------------|------------------|------------------|  
|------------------|----------------3-|-1--1--1--------1-|------------------|  
|-2--------------0-|-2--2--2-----2----|-------------2----|-3--0--0----------|  
|----3--3-----3----|----------3-------|----------3-------|----------2-----2-|  
|----------3-------|------------------|------------------|-------------3----|  
|------------------|------------------|------------------|------------------|  
     1º   fica   Em Suas promessas    que são mui ricas  E infalíveis pra te valer  
     2º           Jesus de todos seus males salva          E te abençoa dos altos céus  
     3º           Se Cristo tarda, espera ainda           Mais um pouquinho e O verás.  
  
|------------|---------------------------|---------------------------|  
|----------1-|---------------------------|-------------------------1-|  
|-------2----|-3--3-----------3-----0--3-|-2--2-----------2-----2----|  
|-3--3-------|-------------------2-------|-------------------3-------|  
|------------|---------------------------|---------------------------|  
|------------|---------------------------|---------------------------|  
(Coro) Porque te abates,                                 oh, minha alma?   
   
|---------------------------|-------------------------1-|  
|---------------------------|----------------------1----|  
|-3--0-----------0-----0--3-|-2-----------------2-------|  
|-------------------2-------|----3-----------3----------|  
|---------------------------|---------------------------|  
|---------------------------|---------------------------|  
          E te      comoves,     perdendo a calma  
|---------------------------|---------------------------|  
|-3--3-----------3--------3-|-1--1-----------1--------1-|  
|-------------------0--3----|----------0--2--------2----|  
|---------------------------|-------3-----------3-------|  
|---------------------------|---------------------------|  
|---------------------------|---------------------------|  
 não              tenhas medo,        em Deus espera  
|---------------------------|---------------|  
|---------------------------|---------------|  
|-3--0-----------0----------|---------------|  
|-------------------2--0--2-|-3-----0-----3-|  
|---------------------------|----3-----3----|  
|---------------------------|---------------|  
Porque           bem cedo, Jesus virá  
  
  
Criado Por Márcio Vasconcellos  
  


		  

See also:

tabs Oficina G3 - A Lição tabs Atmosfera de Adoração - Aleluia tabs Fernanda Brum - Espírto Santo tabs Aline Barros - sonda-me, usa-me tabs Lázaro - Eu Te Amo Tanto tabs Oficina G3 - A Lição (versão detalhada)
e-chords

Other versions:

tabs Harpa Cristã - Alma Abatida tabs Valdir Domingues da Silva - Alma Abatida tabs Dario Elmer Barbosa - Alma Abatida
auto scroll beats size up size down change color hide chords drawings
tab show chords e-chords YouTube Clip e-chords hide all tabs e-chords go to top tab

share