Hans Zimmer

Interestellar Main Theme

Hans Zimmer

tabs

by  PAULANTUNES

save to print version add songbook text version e-mail correct tuner
chordsukulelecavacokeyboardtabbassdrumsharmonicaflute Guitar Pro
close

there isn't a video lesson for this song

chords

Interestellar Main Theme

	  		

Parte 1 de 7 
E|----------------------------------------------------| 
B|----------------------------------------------------| 
G|----------------------------------------------------| 
D|--2--2--2--2--2--2--2--2--2--2----------------------| 
A|-3--3--3--3--3--3--3--3--3--3-----------------------| 
E|----------------------------------------------------| 

Parte 2 de 7 
E|----------------------------------------------------| 
B|----------------------------------------------------| 
G|----------------------------------------------------| 
D|--2--2--2--2--2--2--2--2--2--2----------------------| 
A|-5--5--5--5--5--5--5--5--5--5-----------------------| 
E|----------------------------------------------------| 

Parte 3 de 7 
E|----0-----0------------0---------0------------------| 
B|----------------------------------------------------| 
G|-2-----4------2--4--5--------7-------9--------------| 
D|-2-----2------2--2--2-------------------------------| 
A|-0-----2------0--2--3--------5-------7--------------| 
E|----------------------------------------------------| 

Parte 4 de 7 
E|-----0----0------0------0-----0----0----0----0------| 
B|----------------------------------------------------| 
G|--2-----2-----4------4-----5----5-----7----7--------| 
D|----------------------------------------------------| 
A|----------------------------------------------------| 
E|----------------------------------------------------| 

Parte 5 de 7 
E|------0-----0------0-----0-----0------0-----0-----0-| 
B|----------------------------------------------------| 
G|--2------2------4-----4-----5-----5------7-----7----| 
D|--2------2------2-----2-----2-----2-----------------| 
A|--0------0------2-----2-----3-----3------5-----5----| 
E|----------------------------------------------------| 

Parte 6 de 7 
E|------0------0------0------0------------------------| 
B|----------------------------------------------------| 
G|--2----2--2---2--4---4--4---4-----------------------| 
D|--2-------2------2------2---------------------------| 
A|--0-------0------2------2---------------------------| 
E|----------------------------------------------------| 

Parte 7 de 7 
E|---0-----0-----0------0-----------------------------| 
B|----------------------------------------------------| 
G|-5--5--5--5--7--7--7---7----------------------------| 
D|-2-----2--------------------------------------------| 
A|-3-----3-----5-----5--------------------------------| 
E|----------------------------------------------------| 
		  

auto scroll beats size up size down change color hide chords drawings
tab show chords e-chords YouTube Clip e-chords hide all tabs e-chords go to top tab

share