Hands Off The Barmaid

All Time Catch

Hands Off The Barmaid

tabs

by  LINEKERS

save to print version add songbook text version e-mail correct tuner
chordsukulelecavacokeyboardtabbassdrumsharmonicaflute Guitar Pro
close

there isn't a video lesson for this song

chords

All Time Catch

	  		Intro/Verse 
e|------------------------------------------------------| 
B|------------------------------------------------------| 
G|------------------------------------------------------| 
D|----4-----4-----4--7--7--7--9--9----------------------| 
A|----4-----4-----4--7--7--7--9--9----------------------| 
E|-0--2--0--2--0--2--5--5--5--7--7----------------------| 

Riff 
e|------------------------------------------------------| 
B|------------------------------------------------------| 
G|----------------------------------(2h4p2)-------------| 
D|-------4--2----------2?4------------------------------| 
A|------------------------------------------------------| 
E|-2--2----------2--2-------(2--2)----------------------| 

Chorus 
e|----------------------------------------------------------------------------| 
B|----------------------------------------------------------------------------| 
G|-----------------------------------------h----------------------------------| 
D|----4-----4--------7-----7--2--2----4----o---9------7------4---4---4-------4| 
A|----4-----4--------7-----7--2--2----4----l---9------7------4---4---4-------4| 
E|----2-----2--------5-----5--0--0----2----d---7------5------2---2---2---0---2| 
      F#m            A        E       F#m 
Break 
e|-----------m-----------------------------------------------| 
B|-----------i-----------------------------------------------| 
G|----7b-----d----7-------9--------10-------12-------14------| 
D|----9b11---d----9b11----11b13----12b14----14b16----16b18---| 
A|-----------l-----------------------------------------------| 
E|-----------e-----------------------------------------------| 

Solo in F# minor scale 

End 
e|----x---x---x---x-----x-----x-------------------------| 
B|----x---x---x---x-----10----x-------------------------| 
G|----11--11--11--11----9-----9-------------------------| 
D|----11--11--11--11----11----9----slide back-----------| 
A|----9---9---9---9-----0-----7-------------------------| 
E|----x---x---x---x-----x-----x-------------------------| 
		  

Full key step upFull key step up
Half key step upHalf key step up
Half key step downHalf key step down
Full key step downFull key step down
hide glossary

See also:

tabs Deep Purple - Highway Star tabs Deep Purple - Smoke On The Water (Easy Intro) tabs Deep Purple - Space Truckin tabs Deep Purple - Rat Bat Blues tabs Deep Purple - Smoke On Water (ver. 2) tabs Deep Purple - Lazy
e-chords

Other versions:

tabs Hands Off The Barmaid - All Time Catch
auto scroll beats size up size down change color hide chords drawings
tab show chords e-chords YouTube Clip e-chords hide all tabs e-chords go to top tab

share