Halestorm

Freak Like Me

Halestorm

tabs Expert expert

by  ADALGOMES

save to print version add songbook text version e-mail correct tuner
chordsukulelecavacokeyboardtabbassdrumsharmonicaflute Guitar Pro
close

there isn't a video lesson for this song

chords

Freak Like Me

	  		
Both Lead and Lzzy Verse 
D|--------------------------------------------------------------------------| 
A|--------------------------------------------------------------------------| 
F|--------------------------------------------------------------------------| 
C|-12-x-10-x-13-x-10-12-----------------------------------------------------| 
G|-12-x-10-x-13-x-10-12-------3-5-3-----------------------------------------| 
C|-12-x-10-x-13-x-10-12---3-5-------6-5-3-----------------------------------| 

D|--------------------------------------------------------------------------| 
A|--------------------------------------------------------------------------| 
F|--------------------------------------------------------------------------| 
C|-12-x-10-x-13-x-10-12-----------------------------------------------------| 
G|-12-x-10-x-13-x-10-12-----------------------------------------------------| 
C|-12-x-10-x-13-x-10-12---2-3-0-3-5-0-5-7-0---------------------------------| 
                              *     *     * 
                                  x2 

Lead Bridge 
D|--------------------------------------------------------------------------| 
A|--------------------------------------------------------------------------| 
F|--------------------------------------------------------------------------| 
C|--------------------------------------------------------------------------| 
G|--------------------------------------------------------------------------| 
C|-3-3-3-333-3-3-3-333-5-5-5-555-5-5-5-555-7-7-7-777-0-0-0-000-0-0-0-000----| 
   * * * *** * * * *** * * * *** * * * *** * * * *** * * * *** * * * *** 
                                    x2 
Lzzy 
D|--------------------------------------------------------------------------| 
A|--------------------------------------------------------------------------| 
F|--------------------------------------------------------------------------| 
C|-----------------------------------------------------------------/14/14/14| 
G|--------------------------------------------------------------------------| 
C|--------------------------------------------------------------------------| 

Lzzy Chorus 
D|0-------------------------------------------------------------------------| 
A|2--2-2--------------------------------------------------------------------| 
F|3--3-3-x7(x8 on repeat)---------------------------------------------------| 
C|0--0-0----3-3----5-5----8-8----7-7----12-x-10-----------------------------| 
G|----------3-3-x8-5-5-x8-8-8-x4-7-7-x4-12-x-10-----------------------------| 
C|----------3-3----5-5----8-8----7-7----12-x-10-----------------------------| 
                                    x2 
                        Single Dsus is not repeated 
Lead Chorus 
D|0-----------------------------------------------------------| 
A|2--2-2------------------------------------------------------| 
F|3--3-3-x4-14-15-15/12/14--14-14----14-15-15/12/12--12-12----| 
C|0--0-0-----x--x--x--x--x---x--x-x5--x--x--x--x--x---x--x-x5-|---- 
G|----------12-12-12/10/12--12-12----12-12-12/10/10--10-10----|   | 
C|------------------------------------------------------------|   | 
                                                                  | 
    |-------------------------------------------------------------|  
    v 
D|----------------------------------------| 
A|----------------------------------------| 
F|12-13-14/12-15-15-15-15-14-14--14-15-19-| 
C|-x--x--x--x--x--x--x--x--x--x---x--x--x-| 
G|10-10-12/10-13-13-13-13-12-12--12-13-17-| 
C|----------------------------------------| 
                   x2 (all) 
Verse x 1 
Bridge x 1 
Chorus x 2 

Lzzy Modified Verse (Same time length) 
D|--------------------------------------------------------------------------| 
A|--------------------------------------------------------------------------| 
F|--------------------------------------------------------------------------| 
C|-12-x-10-x-13-x-10-12/----------------------------------------------------| 
G|-12-x-10-x-13-x-10-12/----------------------------------------------------| 
C|-12-x-10-x-13-x-10-12/----------------------------------------------------| 
                                 x4 
Have not tabbed Lead's Solo 
 
		  

Full key step upFull key step up
Half key step upHalf key step up
Half key step downHalf key step down
Full key step downFull key step down
auto scroll beats size up size down change color hide chords drawings
tab show chords e-chords YouTube Clip e-chords hide all tabs e-chords go to top tab

share