Gyroscope

Sharp Words

Gyroscope

tabs

save to print version add songbook text version e-mail correct tuner
chordsukulelecavacokeyboardtabbassdrumsharmonicaflute Guitar Pro
close

there isn't a video lesson for this song

chords

Sharp Words

	  		Australia 
gyroscope 
Sharp Words - acoustic 
by dave ([email protected]) 
 
x = mute the note with left hand 
~ = let the chord ring out 
 
intro-main riff x2			                   finish second time with this 
e|-------------------------------444-4-44-440-0-00-0-00---|-000~---- 
b|-------------------------------554-4-44-440-0-00-0-00---|-000~---- 
g|-----------------------------6-666-6-66-662-2-22-2-22---|-222~---- 
d|-2--224--4-44442--224--4-44446-666-6-66-662-2-22-2-22---|-222~---- 
a|-2--222--2-22222--222--2-22224-444-4-44-440-0-00-0-00---|-000~---- 
e|-0--000--0-00000--000--0-0000---------------------------|--------- 
 
verse riff (chorus riff the same, just a different strumming pattern) 
e|-----0-0-----0-0-----0-0-----0-0-0-0-0-0-0-0-0-0-0-0-0-0-0-0-0-0-- 
b|-----0-0-----0-0-----0-0-----0-0-0-0-0-0-0-0-0-0-0-0-0-0-0-0-0-0-- 
g|-1-1-1-1-1-1-1-1-1-1-1-1-1-1-1-1-2-2-2-2-2-2-2-2-2-2-2-2-2-2-2-2-- 
d|-2-2-2-2-2-2-2-2-2-2-2-2-2-2-2-2-2-2-2-2-2-2-2-2-2-2-2-2-2-2-2-2-- 
a|-2-2-2-2-2-2-2-2-2-2-2-2-2-2-2-2-0-0-0-0-0-0-0-0-0-0-0-0-0-0-0-0-- 
e|-0-0-0-0-0-0-0-0-0-0-0-0-0-0-0-0---------------------------------- 
 
e|-----0-0-----0-0-----0-0-----0-0-- 
b|-----0-0-----0-0-----0-0-----0-0-- 
g|-1-1-1-1-1-1-1-1-1-1-1-1-1-1-1-1-- 
d|-2-2-2-2-2-2-2-2-2-2-2-2-2-2-2-2-- 
a|-2-2-2-2-2-2-2-2-2-2-2-2-2-2-2-2-- 
e|-0-0-0-0-0-0-0-0-0-0-0-0-0-0-0-0-- 
 
pre chorus riff 
e|-4-4-44-4-44440-00-2-222220~-- 
b|-4-5-54-4-44440-00-2-222220~-- 
g|-6-6-66-6-66664-44-4-444442~-- 
d|-6-6-66-6-66664-44-4-444442~-- 
a|-4-4-44-4-44442-22-2-222220~-- 
e|------------------------------ 
 
main riff x2 
 
verse x2 
 
pre chorus x2 
 
chorus x2 
 
main riff x2 
 
prechorus x2 
 
e|-xxxxxx-- 
b|-xxxxxx-- 
g|-xxxxxx-- 
d|-xxxxxx-- 
a|-xxxxxx-- 
e|-xxxxxx-- 
 
chorus x2 
 
(fall away....) x2 
e|-0-0-00-0-0000-0-000--------0-0-00-0-0000-0-000-0-0-0-00-- 
b|-0-0-00-0-0000-0-000--------0-0-00-0-0000-0-000-0-0-0-00-- 
g|-1-1-11-1-1111-1-111--------2-2-22-2-2222-2-222-6-6-6-66-- 
d|-2-2-22-2-2222-2-2226-6-6-662-2-22-2-2222-2-222-6-6-6-66-- 
a|-2-2-22-2-2222-2-2226-6-6-660-0-00-0-0000-0-000-4-4-4-44-- 
e|-0-0-00-0-0000-0-0004-4-4-44------------------------------ 
 
then this riff x2 
e|-0-0-xx0-----0-0-0-0-xx0-----0-0-4-4-44-4-44440-0-00-0-0000-- 
b|-0-0-xx0-----0-0-0-0-xx0-----0-0-5-5-54-4-44440-0-00-0-0000-- 
g|-2-2-xx2-----2-2-2-2-xx2-----2-2-6-6-66-6-66662-2-22-2-2222-- 
d|-2-2-xx2-----2-2-2-2-xx2-----2-2-6-6-66-6-66662-2-22-2-2222-- 
a|-0-0-xx0-----0-0-0-0-xx0-----0-0-4-4-44-4-44440-0-00-0-0000-- 
e|------------------------------------------------------------- 
 
main riff x2 
 
then finish on this 
e|-0~--- 
b|-0~--- 
g|-1~--- 
d|-2~--- 
a|-2~--- 
e|-0~--- 
 
im not sure about the strumming pattern, i was pretty rushed so if u listen  
to the cd u may 
be able to pick up the strumming pattern yourself. enjoy! 
 

		  

See also:

tabs Simon & Garfunkel - Sounds of silence tabs R.E.M. - Everybody Hurts tabs Guns N' Roses - Knockin' On Heaven's Door tabs John Mayer - Belief tabs The Wonders - That Thing You Do tabs Cheap Trick - The Flame
e-chords

Other versions:

tabs Gyroscope - Sharp Words
auto scroll beats size up size down change color hide chords drawings
tab show chords e-chords YouTube Clip e-chords hide all tabs e-chords go to top tab

share