Gyroscope

Safe Forever

Gyroscope

tabs

save to print version add songbook text version e-mail correct tuner
chordsukulelecavacokeyboardtabbassdrumsharmonicaflute Guitar Pro
close

there isn't a video lesson for this song

chords

Safe Forever

	  		Australia 
Safe Forever - gyroscope 
by dave ([email protected] hotmail) 
any issues just send me an email 
 
standard tuning 
 
key 
1: guitar 1(zok) 
2: guitar 2(dan) 
p: pull off 
/: slide up 
\: slide down 
~: vibrato 
 
 
Intro 
1 x2 
e|----------0-----0--10p0----------------------------- 
b|-0--3--5-----5----------12p0--10~~10~~10~~---------- 
g|---------------------------------------------------- 
d|---------------------------------------------------- 
a|---------------------------------------------------- 
e|---------------------------------------------------- 
 
2 
e|---------------0---0---0-------0---0---0-------0---0---0-------0---0- 
b|---------------0---0---0-------0---0---0-------0---0---0-------0---0- 
g|-------------2-2---2---2-----5-5---5---5---------------------5-5---5- 
d|-----------2-------2---2---5-------5---5-----5-5---5---5---5-------5- 
a|---------0---------0---0-3---------3---3---5-------5---5-3---------3- 
e|-----------------------------------------3---------3---3------------- 
 
Verse 
1 plays same as intro x4 
 
2 x2 
e|---------0-------------------------------0------------------------------- 
b|---------0-------------------------------0------------------------------- 
g|---------2-------------------------------2---------------5-5-5----------- 
d|---------2-------------------------------2---------------5-5-5-5-5-5-5-5- 
a|---------0-------------------------------0---------------3-3-3-5-5-5-5-5- 
e|---------------------------------------------------------------3-3-3-3-3- 
 
end second time with this 
2 
e|---- 
b|---- 
g|---- 
d|-3-- 
a|-3-- 
e|-1-- 
 
repeat intro 
 
repeat verse 
 
pre chorus 
1 
e|-----------------------------------7-----7-----7---7-----7-----7-- 
b|-------------------------------------8-----8---------8-----8------ 
g|---------------------------------9-----9-----9---9-----9-----9---- 
d|------------------------------------------------------------------ 
a|------------------------------------------------------------------ 
e|------------------------------------------------------------------ 
 
2 
e|----------------------------------------------------------------- 
b|----------------------------------------------------------------- 
g|-2-2-2-2-2-2-2-2-2-2-2-2-2-2-2-2-2-2-2-2-2-2-2-2-2-2-2-2-2-2-2-2- 
d|-2-2-2-2-2-2-2-2-2-2-2-2-2-2-2-2-2-2-2-2-2-2-2-2-2-2-2-2-2-2-2-2- 
a|-0-0-0-0-0-0-0-0-0-0-0-0-0-0-0-0-0-0-0-0-0-0-0-0-0-0-0-0-0-0-0-0- 
e|----------------------------------------------------------------- 
 
 
chorus 
1 x2 
e|---7-----7-----7---7-----7-----7---7-----7-----7---7-----7-----7- 
b|-----8-----8---------8-----8---------8-----8---------8-----8----- 
g|-9-----9-----9---9-----9-----9---9-----9-----9---9-----9-----9--- 
d|----------------------------------------------------------------- 
a|----------------------------------------------------------------- 
e|----------------------------------------------------------------- 
 
2 x2 
e|----------------------------------------------------------------- 
b|----------------------------------------------------------------- 
g|-5-5-5-5-5-5-5-5-4-4-4-4-7-7-7-7--------------------------------- 
d|-5-5-5-5-5-5-5-5-4-4-4-4-7-7-7-7-7-7-7-7-7-7-7-7-7-7-7-7-7-7-7-7- 
a|-3-3-3-3-3-3-3-3-2-2-2-2-5-5-5-5-7-7-7-7-7-7-7-7-7-7-7-7-7-7-7-7- 
e|---------------------------------5-5-5-5-5-5-5-5-5-5-5-5-5-5-5-5- 
 
post chorus 
1 
e|----------0-----0--10p0----------------------------------------------------------- 
b|-0--3--5-----5----------12p0--10-10-10-10-10-10/12-12-12-12-12--12/13-13---8------ 
g|---------------------------------------------------------------------------------- 
d|---------------------------------------------------------------------------------- 
a|---------------------------------------------------------------------------------- 
e|---------------------------------------------------------------------------------- 
 
then on second time do this 
1 
e|----------0-----0--10p0----------------------------------------------------------------- 
b|-0--3--5-----5----------12p0--10-10-10-10-10-10/12-12-12-12-10/12-12-12-12/13-13/15-15~~ 
g|---------------------------------------------------------------------------------------- 
d|---------------------------------------------------------------------------------------- 
a|---------------------------------------------------------------------------------------- 
e|---------------------------------------------------------------------------------------- 
 
2 x2 
e|-------------------------------------------------------------------------- 
b|-------------------------------------------------------------------------- 
g|------------------------------------------5-5-5-5-5-5-5-5-5-5-5-5-5------- 
d|----------7-7---7-7-7---7-7-7---7-7-5-5-5-5-5-5-5-5-5-5-5-5-5-5-5-5-5-5-5- 
a|----------7-7---7-7-7---7-7-7---7-7-5-5-5-3-3-3-3-3-3-3-3-3-3-3-3-3-5-5-5- 
e|----------5-5---5-5-5---5-5-5---5-5-3-3-3---------------------------3-3-3- 
 
end 2nd time on this 
2 
e|-------------- 
b|-------------- 
g|-------------- 
d|-3------------ 
a|-3------------ 
e|-1------------ 
 
repeat chorus 
 
chorus followed by this 
1 
e|----------------------------------------------------- 
b|----------------------------------------------------- 
g|-7/9-9-9-9-9-9-9-5/7-7-7-7-7-7-7-4/5-4/5-4/5-4/5-4\2- 
d|----------------------------------------------------- 
a|-5/7-7-7-7-7-7-7-3-5-5-5-5-5-5-5-2-3-2-3-2-3-2-3-2-0- 
e|----------------------------------------------------- 
 
do this 2nd time 
1 
e|------------------------------------------------------------------ 
b|------------------------------------------------------------------ 
g|-7/9-9-9-9-9-9-9-5/7-7-7-7-7-7-7-4-4-4-4-5-5-5-5-7-7-7-7-9-9-9-9-- 
d|------------------------------------------------------------------ 
a|-5/7-7-7-7-7-7-7-3-5-5-5-5-5-5-5-2-2-2-2-3-3-3-3-5-5-5-5-7-7-7-7-- 
e|------------------------------------------------------------------ 
 
2 x2 
e|----------------------------------------------------------------- 
b|----------------------------------------------------------------- 
g|----------------------------------------------------------------- 
d|-7-7-7-7-7-7-7-7-5-5-5-5-5-5-5-5-3-3-3-3-3-3-3-3-3-3-3-3-3-3-3-3- 
a|-7-7-7-7-7-7-7-7-5-5-5-5-5-5-5-5-3-3-3-3-3-3-3-3-3-3-3-3-3-3-3-3- 
e|-5-5-5-5-5-5-5-5-3-3-3-3-3-3-3-3-1-1-1-1-1-1-1-1-1-1-1-1-1-1-1-1- 
 
then 
1 x2 
e|-------------------------------------------------------------- 
b|-3/5-5~~~~-------1/3-3~~~~------------------------------------ 
g|---------------------------------4/5\4/5-4/5\4/5-4\2~~~~------ 
d|-------------------------------------------------------------- 
a|-------------------------------------------------------------- 
e|-------------------------------------------------------------- 
 
2 x2 (palm muted) 
e|----------------------------------------------------------------- 
b|----------------------------------------------------------------- 
g|-5-5-5-5-5-5-5-5------------------------------------------------- 
d|-5-5-5-5-5-5-5-5-5-5-5-5-5-5-5-5-7-7-7-7-7-7-7-7-7-7-7-7-7-7-7-7- 
a|-3-3-3-3-3-3-3-3-5-5-5-5-5-5-5-5-7-7-7-7-7-7-7-7-7-7-7-7-7-7-7-7- 
e|-----------------3-3-3-3-3-3-3-3-5-5-5-5-5-5-5-5-5-5-5-5-5-5-5-5- 
 
 
(safe forever....forever) 
1 x2 after do the same riff as guitar 2 x2 
e|-------------------------------------------------------------------- 
b|-4/5\4/5-4/5\4/5-4/5\4/5-4/5\4/5-4/5\4/5-4/5\4/5-4/5\4/5-4/5\4/5---- 
g|-------------------------------------------------------------------- 
d|-------------------------------------------------------------------- 
a|-------------------------------------------------------------------- 
e|-------------------------------------------------------------------- 
 
2 x2 (palm muted) then with dist x2 
e|----------------------------------------------------------------- 
b|----------------------------------------------------------------- 
g|---------------------------------5-5-5-5-5-5-5-5-5-5-5-5--------- 
d|-7-7-7-7-7-7-7-7-7-7-7-7-5-5-5-5-5-5-5-5-5-5-5-5-5-5-5-5-5-5-5-5- 
a|-7-7-7-7-7-7-7-7-7-7-7-7-5-5-5-5-3-3-3-3-3-3-3-3-3-3-3-3-5-5-5-5- 
e|-5-5-5-5-5-5-5-5-5-5-5-5-3-3-3-3-------------------------3-3-3-3-- 
 
 
repeat pre chorus 
 
chorus x2 
 
both guitars end on 
e|---------------------------------------------- 
b|---------------------------------------------- 
g|-5-------------------------------------------- 
d|-5---------------5---------------7------------ 
a|-3---------------5---------------7------------ 
e|-----------------3---------------5------------ 
 
done and done 
 

		  

See also:

tabs Simon & Garfunkel - Sounds of silence tabs R.E.M. - Everybody Hurts tabs Guns N' Roses - Knockin' On Heaven's Door tabs John Mayer - Belief tabs The Wonders - That Thing You Do tabs Cheap Trick - The Flame
e-chords

Other versions:

tabs Gyroscope - Safe Forever
auto scroll beats size up size down change color hide chords drawings
tab show chords e-chords YouTube Clip e-chords hide all tabs e-chords go to top tab

share