Gyroscope

Only November

Gyroscope

tabs

save to print version add songbook text version e-mail correct tuner
chordsukulelecavacokeyboardtabbassdrumsharmonicaflute Guitar Pro
close

there isn't a video lesson for this song

chords

Only November

	  		Australia 
Gyroscope - Only November - guitar(rhythm) 
 
by dave([email protected]) 
 
~:let ring 
*:palm mute 
 
intro/verse1 x16 
e|------------------------------------------------------------------------------ 
b|------------------------------------------------------------------------------ 
g|------------------------------------------------------------------------------ 
d|-6-6-7---6---2~--------------------------------------------------------------- 
a|-6-6-7---6---2~--------------------------------------------------------------- 
e|-4-4-5---4---0~--------------------------------------------------------------- 
 
then 
e|------------------------------------------------------------------------------ 
b|------------------------------------------------------------------------------ 
g|------------------------------------------------------------------------------ 
d|-6-6-7---6-------------------------------------------------------------------- 
a|-6-6-7---6-------------------------------------------------------------------- 
e|-4-4-5---4-------------------------------------------------------------------- 
 
chorus1 x2 
e|------------------------------------------------------------------------------ 
b|------------------------------------------------------------------------------ 
g|-9-9-99-9-99-9999----------------6-6-66-6-66-6666----------------------------- 
d|-9-9-99-9-99-99997-7-77-7-77-77776-6-66-6-66-66667-7-77-9-99-9999------------- 
a|-7-7-77-7-77-77777-7-77-7-77-77774-4-44-4-44-44447-7-77-9-99-9999------------- 
e|-----------------5-5-55-5-55-5555----------------5-5-55-7-77-7777------------- 
 
then intro riff x 5 
 
verse 2 
e|--------------------------------------------------------------------------- 
b|--------------------------------------------------------------------------- 
g|--------------------------------------------------------------------------- 
d|-2~------------------------------7~------------------------------6-6-7---6- 
a|-2~------------------------------7~------------------------------6-6-7---6- 
e|-0~------------------------------5~------------------------------4-4-5---4- 
 
e|------------------------------------------------------------------- 
b|------------------------------------------------------------------- 
g|------------------------------------------------------------------- 
d|-2~------------------------------7--------------------------------- 
a|-2~------------------------------7--------------------------------- 
e|-0~------------------------------5--------------------------------- 
 
chorus x 2 
 
then chorus variation x2 
e|------------------------------------------------------------------- 
b|------------------------------------------------------------------- 
g|-99999999999999999999999999999999---------------------------------- 
d|-9999999999999999999999999999999977777777777777777777777777777777-- 
a|-7777777777777777777777777777777777777777777777777777777777777777-- 
e|---------------------------------55555555555555555555555555555555-- 
 
e|------------------------------------------------------------------- 
b|-----------------------------------*-*-*-*-*-*-*------------------- 
g|-6~--------------4~--------------2-2-2-2-2-2-2-2-2222222222222244-- 
d|-6~--------------4~--------------2-2-2-2-2-2-2-2-22222222222222442- 
a|-4~--------------2~--------------0-0-0-0-0-0-0-0-00000000000000222- 
e|-----------------------------------------------------------------0- 
 
then chorus variation x1 
 
then 
e|-------------------------------------------------------------------------------------------------------------- 
b|-------------------------------------------------------------------------------------------------------------- 
g|-999999--999999--99999999111111111111-1313-1414141414141414-1313131313131313-1616161616161616-1414141414141414 
d|-------------------------------------------------------------------------------------------------------------- 
a|-777777--777777--77777777-9-9-9-9-9-9-1111-1212121212121212-1111111111111111-1414141414141414-1212121212121212 
e|-------------------------------------------------------------------------------------------------------------- 
 
then chorus variation x2 
 
finish on 
e|------------------------------------------------------------------------------ 
b|------------------------------------------------------------------------------ 
g|------------------------------------------------------------------------------ 
d|-2~--------------------------------------------------------------------------- 
a|-2~--------------------------------------------------------------------------- 
e|-0~--------------------------------------------------------------------------- 
 

		  

See also:

tabs Simon & Garfunkel - Sounds of silence tabs R.E.M. - Everybody Hurts tabs Guns N' Roses - Knockin' On Heaven's Door tabs John Mayer - Belief tabs The Wonders - That Thing You Do tabs Cheap Trick - The Flame
e-chords

Other versions:

tabs Gyroscope - Only November
auto scroll beats size up size down change color hide chords drawings
tab show chords e-chords YouTube Clip e-chords hide all tabs e-chords go to top tab

share