Gyroscope

Doctor Doctor

Gyroscope

tabs

save to print version add songbook text version e-mail correct tuner
chordsukulelecavacokeyboardtabbassdrumsharmonicaflute Guitar Pro
close

there isn't a video lesson for this song

chords

Doctor Doctor

	  		Artist: Gyroscope 
Song: Doctor Doctor 
Available on: ?? 
 
Transcribed by Paul @ OzTabs ([email protected]) 
www.ozmusic-central.com.au/oztabs 
 
Notes: Here's all the parts for this rockin' new Gyroscope track. 
You'll have to listen to the song to see how it all fits together. 
Comments & corrections appreciated. 
 
 
INTRO LEAD: 
E-|-17-17-17-15-15-15-------------------------------|- 
B-|-------------------15-15-15-15-15-15-15-15-15-15-|- 
G-|-------------------------------------------------|- 
D-|-------------------------------------------------|- 
A-|-------------------------------------------------|-(x 4) 
E-|-------------------------------------------------|- 
 
CHORUS: (Doctor Doctor Help Me) 
E-|--------------------|- 
B-|--------------------|- 
G-|-4-4-5-5-4-4--4-4-4-|- 
D-|-4-4-5-5-5-5--5-5-5-|-(x4) 
A-|-2-2-3-3-5-5--5-5-5-|- 
E-|-2-2-3-3-3-3--3-3-3-|- 
 
VERSES: 
Rhythm 
    C5               G5               C5      F5       G5 
E-|--------------------------------------------------------------------|- 
B-|--------------------------------------------------------------------|- 
G-|-5-5-5-5-5-5-5-5-------------------5-5-5-5--------------------------|- 
D-|-5-5-5-5-5-5-5-5--5-5-5-5-5-5-5-5--5-5-5-5-3-3-3-3--5-5-5-5-5-5-5-5-|- 
A-|-3-3-3-3-3-3-3-3--5-5-5-5-5-5-5-5--3-3-3-3-3-3-3-3--5-5-5-5-5-5-5-5-|- 
E-|------------------3-3-3-3-3-3-3-3----------1-1-1-1--3-3-3-3-3-3-3-3-|- 
 
    A#5     F5       C5               A#5     F#5     G5 
E-|--------------------------------------------------------------------|- 
B-|--------------------------------------------------------------------|- 
G-|-3-3-3-3----------5-5-5-5-5-5-5-5--3-3-3-3--------------------------|- 
D-|-3-3-3-3-3-3-3-3--5-5-5-5-5-5-5-5--3-3-3-3-3-3-3-3--5-5-5-5-5-5-5-5-|- 
A-|-1-1-1-1-3-3-3-3--3-3-3-3-3-3-3-3--1-1-1-1-3-3-3-3--5-5-5-5-5-5-5-5-|- 
E-|---------1-1-1-1---------------------------1-1-1-1--3-3-3-3-3-3-3-3-|- 
 
Lead (verse): 
E-|----------------------------------|- 
B-|----------------------------------|- 
G-|--7-5-0-4-5-0--0-2-0--0-2-4-5-7-7-|- 
D-|----------------------------------|- 
A-|----------------------------------|- 
E-|----------------------------------|- 
 
SOLO: 
E-|---------------------------------------------------------------------------|- 
B-|-----------7-8-------------7-8------------7-8-----------7-8------------7-8-|- 
G-|-4-5--7-9--------4-5--7-9-------4-5--7-9-------4-5--7-9------4-5--7-9------|- 
D-|---------------------------------------------------------------------------|- 
A-|---------------------------------------------------------------------------|- 
E-|---------------------------------------------------------------------------|- 
 
E-|--------------15-17-|- 
B-|-12-13--15-17-------|- 
G-|--------------------|- 
D-|--------------------|-(x 5) 2nd guitar can play the above at the same time 
A-|--------------------|- 
E-|--------------------|- 
 
E-|-17-17-17-15-15-15-------------------------------|- 
B-|-------------------15-15-15-15-15-15-15-15-15-15-|- 
G-|-------------------------------------------------|- 
D-|-------------------------------------------------|- 
A-|-------------------------------------------------|- 
E-|-------------------------------------------------|- 
 
E-|-17-17-17-15-15-15--17b18--17b18--17b18--15~~-|- 
B-|----------------------------------------------|- 
G-|----------------------------------------------|- 
D-|----------------------------------------------|- 
A-|----------------------------------------------|- 
E-|----------------------------------------------|- 
 
E-|-----------------------------------------------------------|- 
B-|-----------------------------------------------------------|- 
G-|-5-5-5-5-5-5--7-7-7-7-7-7--9-9-9-9-9-9--12-12-12-12-12-12--|- 
D-|-----------------------------------------------------------|- 
A-|-3-3-3-3-3-3--5-5-5-5-5-5--7-7-7-7-7-7--10-10-10-10-10-10--|- 
E-|-----------------------------------------------------------|- 
 
E-|----------------------------------------------------------------------------|- 
B-|----------------------------------------------------------------------------|- 
G-|-14-14-14--12-12-12----------14-14-14--12-12-12--16-16-16-16-16--14--12~~~--|- 
D-|----------------------------------------------------------------------------|- 
A-|-12-12-12--10-10-10--5b~~~---12-12-12--10-10-10--14-14-14-14-14--12--10~~~--|- 
E-|----------------------------------------------------------------------------|- 
 
ACOUSTIC BIT: 
    C                G                C       F        G 
E-|--------------------------------------------------------------------|- 
B-|-1-1-1-1-1-1-1-1--3-3-3-3-3-3-3-3--1-1-1-1-1-1-1-1--3-3-3-3-3-3-3-3-|- 
G-|-0-0-0-0-0-0-0-0--4-4-4-4-4-4-4-4--0-0-0-0-2-2-2-2--4-4-4-4-4-4-4-4-|- 
D-|-2-2-2-2-2-2-2-2--5-5-5-5-5-5-5-5--2-2-2-2-3-3-3-3--5-5-5-5-5-5-5-5-|- 
A-|-3-3-3-3-3-3-3-3--5-5-5-5-5-5-5-5--3-3-3-3-3-3-3-3--5-5-5-5-5-5-5-5-|- 
E-|------------------3-3-3-3-3-3-3-3----------1-1-1-1--3-3-3-3-3-3-3-3-|- 
 

		  

Full key step upFull key step up
Half key step upHalf key step up
Half key step downHalf key step down
Full key step downFull key step down
hide glossary

See also:

tabs Simon & Garfunkel - Sounds of silence tabs R.E.M. - Everybody Hurts tabs Guns N' Roses - Knockin' On Heaven's Door tabs John Mayer - Belief tabs The Wonders - That Thing You Do tabs Cheap Trick - The Flame
e-chords

Other versions:

tabs Gyroscope - Doctor Doctor tabs UFO - Doctor Doctor tabs Ty Segall - Doctor Doctor
auto scroll beats size up size down change color hide chords drawings
tab show chords e-chords YouTube Clip e-chords hide all tabs e-chords go to top tab

share