Gyroscope

Distance With You

Gyroscope

tabs

save to print version add songbook text version e-mail correct tuner
chordsukulelecavacokeyboardtabbassdrumsharmonicaflute Guitar Pro
close

there isn't a video lesson for this song

chords

Distance With You

	  		Australia 
Gyroscope - Distance With You - Guitar 
 
by dave ([email protected]) 
 
*: palm mute 
\: slide down 
~: let ring 
 
guitar 1 - intro x6 
e|------------------------------------------ 
b|------------------------------------------ 
g|------------------------------------------ 
d|-********************************--------- 
a|-33333333333333330000000000000000--------- 
e|------------------------------------------ 
 
guitar 2 - intro x4 (comes in after guitar 1 intro has been played twice) 
(im not sure wether this is right but it sounds close) 
e|------------------------------------------ 
b|----0-------0-------0-------0------------- 
g|------------------------------------------ 
d|--5---5---5---5---2---2---2---2----------- 
a|-3-----3-3-----3-0-----0-0-----0---------- 
e|------------------------------------------ 
 
guitar 1 & 2 - main riff(heavy) x2 
e|------------------------------------------ 
b|------------------------------------------ 
g|-55555555555555552222222222222222--------- 
d|-55555555555555552222222222222222--------- 
a|-33333333333333330000000000000000--------- 
e|------------------------------------------ 
 
guitar 1 interlude 
e|------------------------------------------ 
b|------------------------------------------ 
g|-(harmonic thing here)---5555777---------- 
d|-------------------------5555777---------- 
a|-------------------------3333555---------- 
e|------------------------------------------ 
 
e|------------------------------------------ 
b|------------------------------------------ 
g|-777-----777-----777-----5555777---------- 
d|-777-----777-----777-----5555777---------- 
a|-------------------------3333555---------- 
e|------------------------------------------ 
 
e|------------------------------------------ 
b|------------------------------------------ 
g|-777-----777-----777-----55557777\-------- 
d|-777-----777-----777-----55557777\-------- 
a|-------------------------33335555\-------- 
e|------------------------------------------ 
 
guitar 2 interlude x3 
e|------------------------------------------ 
b|------------------------------------------ 
g|7777-222-555-777-777-222-5555777---------- 
d|7777-222-555-777-777-222-5555777---------- 
a|5555-000-333-555-555-000-3333555---------- 
e|------------------------------------------ 
 
both guitars back to main riff x2 
 
guitar 1 "wait for" riff x2 
(guitar 2 plays a distorted variation of its intro riff here) 
e|------------------------------------------ 
b|------------------------------------------ 
g|-5555~-----------2222~----2-22222--------- 
d|-5555~-----------2222~----2-22222--------- 
a|-3333~-----------0000~----0-00000--------- 
e|------------------------------------------ 
 
guitar 1 intro riff x3 
 
guitar 2 intro riff x2 (comes in after guitar one riff is played once) 
 
guitar 1 bridge (cant work out guitar 2 solo yet) 
e|------------------------------------------------------------ 
b|------------------------------------------------------------ 
g|-55555555555555552--4--------------------------------------- 
d|-55555555555555552--4--2~---------(play twice during solo)-- 
a|-33333333333333330--2--2~----------------------------------- 
e|-----------------------0~----------------------------------- 
 
then both guitars do this twice 
e|-------------------------------- 
b|-------------------------------- 
g|-5--5--5~--------2--4----------- 
d|-5--5--5~--------2--4--2~------- 
a|-3--3--3~--------0--2--2~------- 
e|-----------------------0~------- 
 
then the "wait for" riffs x2 
 
then the main riff x4 
 
tabbing this was pretty confusing so i dont blame you if you dont  
understand. if 
you're stuck, email me if u want. 
 

		  

See also:

tabs Simon & Garfunkel - Sounds of silence tabs R.E.M. - Everybody Hurts tabs Guns N' Roses - Knockin' On Heaven's Door tabs John Mayer - Belief tabs The Wonders - That Thing You Do tabs Cheap Trick - The Flame
e-chords

Other versions:

tabs Gyroscope - Distance With You
auto scroll beats size up size down change color hide chords drawings
tab show chords e-chords YouTube Clip e-chords hide all tabs e-chords go to top tab

share