Gyroscope

Dead Nor Dying

Gyroscope

tabs

save to print version add songbook text version e-mail correct tuner
chordsukulelecavacokeyboardtabbassdrumsharmonicaflute Guitar Pro
close

there isn't a video lesson for this song

chords

Dead Nor Dying

	  		Australia 
Gyroscope - Dead Nor Dying - guitar (rhythm) 
 
by dave([email protected]) 
 
* palm mute 
/ slide up 
\ slide down 
~ let ring 
 
intro 
e|---------------------------------------------------------------------------- 
b|---------------------------------------------------------------------------- 
g|-----------------9/11/13\11\99--------9/11/13\11\99------------------------- 
d|-22222222999999999/11/13\11\99777777779/11/13\11\99999999997777777777777999- 
a|-22222222999999997/ 9/11\ 9\77777777777/ 9/11\  
9\77999999997777777777777999- 
e|-0000000077777777-------------55555555-------------777777775555555555555777- 
 
verse x2 (clean) 
e|------------------------------------------------------------------- 
b|-----------------****************---------------------------------- 
g|-****************2222222222222222---------------------------------- 
d|-22222222222222222222222222222222---------------------------------- 
a|-22222222222222220000000000000000---------------------------------- 
e|-0000000000000000-------------------------------------------------- 
 
then 
e|------------------------------------------------------------------- 
b|------------------------------------------------------------------- 
g|-9~------9/11/13\11\9~--------------------------------------------- 
d|-9~------9/11/13\11\9~--------------------------------------------- 
a|-7~------7/ 9/11\ 9\7~--------------------------------------------- 
e|------------------------------------------------------------------- 
 
chorus 
e|------------------------------------------------------------------- 
b|------------------------------------------------------------------- 
g|-99999999--------99999999--------99999999-------------------------- 
d|-9999999999999999999999997777777799999999999999997777777777777999-- 
a|-7777777799999999777777777777777777777777999999997777777777777999-- 
e|---------77777777--------55555555--------777777775555555555555777-- 
 
verse x2 (heavy) 
 
then 
e|------------------------------------------------------------------- 
b|------------------------------------------------------------------- 
g|---------------------9~-------------------------------------------- 
d|-drums only, then ---9~-------------------------------------------- 
a|---------------------7~-------------------------------------------- 
e|------------------------------------------------------------------- 
 
chorus 
 
this is what dan plays during zoks only real solo on the ep 
e|------------------------------------------------------------------- 
b|------------------------------------------------------------------- 
g|****************************************--------------------------- 
d|1111111111111111999999997777777722222222--------------------------- 
a|1111111111111111999999997777777722222222--------------------------- 
e|-9-9-9-9-9-9-9-9777777775555555500000000--------------------------- 
 
e|------------------------------------------------------------------- 
b|------------------------------------------------------------------- 
g|****************************************--------------------------- 
d|1111111111111111999999992222222277779999--------------------------- 
a|1111111111111111999999992222222277779999--------------------------- 
e|-9-9-9-9-9-9-9-9777777770000000055557777--------------------------- 
 
e|------------------------------------------------------------------- 
b|------------------------------------------------------------------- 
g|****--****--**--************************--------------------------- 
d|1111111111111111999999997777777722222222--------------------------- 
a|1111111111111111999999997777777722222222--------------------------- 
e|-9-9-9-9-9-9-9-9777777775555555500000000--------------------------- 
 
e|------------------------------------------------------------------- 
b|------------------------------------------------------------------- 
g|****--****--**--**-**-*-********----------------------------------- 
d|1111111111111111999999992222222277779999--------------------------- 
a|1111111111111111999999992222222277779999--------------------------- 
e|-9-9-9-9-9-9-9-9777777770000000055557777--------------------------- 
 
chorus x2 
 
then finish on 
e|------------------------------------------------------------------- 
b|------------------------------------------------------------------- 
g|------------------------------------------------------------------- 
d|-2~---------------------------------------------------------------- 
a|-2~---------------------------------------------------------------- 
e|-0~---------------------------------------------------------------- 
 
enjoy :) 
 
 

		  

See also:

tabs Simon & Garfunkel - Sounds of silence tabs R.E.M. - Everybody Hurts tabs Guns N' Roses - Knockin' On Heaven's Door tabs John Mayer - Belief tabs The Wonders - That Thing You Do tabs Cheap Trick - The Flame
e-chords

Other versions:

tabs Gyroscope - Dead Nor Dying
auto scroll beats size up size down change color hide chords drawings
tab show chords e-chords YouTube Clip e-chords hide all tabs e-chords go to top tab

share