Gyroscope

Chapter 13

Gyroscope

tabs

save to print version add songbook text version e-mail correct tuner
chordsukulelecavacokeyboardtabbassdrumsharmonicaflute Guitar Pro
close

there isn't a video lesson for this song

chords

Chapter 13

	  		Australia 
gyroscope - Chapter 13 
by dave ([email protected]) 
 
key 
h - hammer on 
x - mute string 
/ - slide up 
\ - slide down 
 
this is the chorus and intro chords that im pretty sure both guitars play. 
strumming pattern is pretty easy to figure out but 2 hard 2 type, thats y i  
didnt do it :P 
e|--------------- 
b|--------------- 
g|-------7------- 
d|-7-----7-----7- 
a|-7-----5-----7- 
e|-5-----5-----7- 
 
dans pre-verse 
e|---------------------------- 
b|---------------------------- 
g|---------------------------- 
d|-4---------------------7---- 
a|-4---------------------7---- 
e|-2---------------------5---- 
 
zok plays this throughout the pre-verse and the first verse 
e|--------------------------------------------------- 
b|-0-0h2------3---2------------0-0h2------3---2------ 
g|-------2----2---2------------------2----2---2------ 
d|--------------------------------------------------- 
a|--------------------------------------------------- 
e|--------------------------------------------------- 
do 6 times and finish on this 
e|----0-----0----------- 
b|------2-----2--------- 
g|-2------2------------- 
d|---------------------- 
a|---------------------- 
e|---------------------- 
 
both guitars 
e|---------------------- 
b|---------------------- 
g|--77-777-766-666-6---- 
d|--77-777-766-666-6---- 
a|--55-555-544-444-4---- 
e|---------------------- 
 
chorus x1 
 
both guitars again 
e|---------------------- 
b|---------------------- 
g|--77-777-766-666-6---- 
d|--77-777-766-666-6---- 
a|--55-555-544-444-4---- 
e|---------------------- 
 
dans pre-verse x1 
 
zok's preverse variation 
e|-------------------------------------------------------------------------- 
b|-0-0h2------3---2---------------2/7--7--5--5/10--10-----12---10----------- 
g|-------2----2---2------------------------------------9-------------------- 
d|-------------------------------------------------------------------------- 
a|-------------------------------------------------------------------------- 
e|-------------------------------------------------------------------------- 
 
verse 2(both guitars) 
e|------------------------------------------------------------ 
b|------------------------------------------------------------ 
g|-14141414xxxx14141414xxxx14141414xxxx14141414xxxx----------- 
d|---------xxxx--------xxxx--------xxxx--------xxxx----------- 
a|-12121212xxxx12121212xxxx12121212xxxx12121212xxxx----------- 
e|------------------------------------------------------------ 
 
then zok plays this                 and dan plays this 
e|--------------------------------|--------------------------- 
b|-0-0h2------3---2---------------|--------------------------- 
g|-------2----2---2---------------|--------------7------------ 
d|--------------------------------|-7------------7----7------- 
a|--------------------------------|-7------------5----7------- 
e|--------------------------------|-5------------5----5------- 
 
dan repeats verse 2 riff 
and zok plays this 
e|----------------------------------------------------------- 
b|----------------------------------------------------------- 
g|-14141414xxxx13131313xxxx11111111xxxx9999xxxx-------------- 
d|---------xxxx--------xxxx--------xxxx----xxxx-------------- 
a|-12121212xxxx11111111xxxx-9-9-9-9xxxx7777xxxx-------------- 
e|----------------------------------------------------------- 
 
zok finishes with this                and dan... 
e|---------------------------------|------------------------- 
b|-0-0h2------3/10-----------------|------------------------- 
g|-------2-------------------------|-------------7----------- 
d|---------------------------------|-7-----------7----7------ 
a|---------------------------------|-7-----------5----7------ 
e|---------------------------------|-5-----------5----5------ 
 
pre chorus 2 
zok                                   dan 
e|------5----------------------------|-------------------------------- 
b|--------5--------------------------|-------------------------------- 
g|-7--------7-----6------------------|--7--------------6------xxxxxxx- 
d|-7--------------6------------------|--7--------------6------xxxxxxx- 
a|-5--------------4------------------|--5--------------4------xxxxxxx- 
e|-5--------------4------------------|--5--------------4------xxxxxxx- 
 
chorus riff x2 
 
then dan plays this for the bridge 
e|-------------------------------------------------------------------- 
b|-------------------------------------------------------------------- 
g|-7--------6----6666666---------------------------------------------- 
d|---------------------------4-4442--4-4442--4-4442--4-4442----------- 
a|-5--------4----4444444-----4-4442--4-4442--4-4442--4-4442----------- 
e|---------------------------2-2220--2-2220--2-2220--2-2220----------- 
 
e|-------------------------------------------------------------------- 
b|-------------------------------------------------------------------- 
g|-7------9\6----6666666---------------------------------------------- 
d|---------------------------4-4442--4-4442--4-4442--4-4442----------- 
a|-5------7\4----4444444-----4-4442--4-4442--4-4442--4-4442----------- 
e|---------------------------2-2220--2-2220--2-2220--2-2220----------- 
 
while zok plays this twice 
e|------------------------------------------------------------------ 
b|------------------------------------------------------------------ 
g|-1414141414141414131313131313131316161616161616161414141414141414- 
d|------------------------------------------------------------------ 
a|-1212121212121212111111111111111114141414141414141212121212121212- 
e|------------------------------------------------------------------ 
 
e|------------------------------------------------------------------ 
b|------------------------------------------------------------------ 
g|-14141414141414141313131313131313111111111111111199999999--------- 
d|------------------------------------------------------------------ 
a|-12121212121212121111111111111111-9-9-9-9-9-9-9-977777777--------- 
e|------------------------------------------------------------------ 
 
play this during "forgive me" 
zok 				      dan 
e|-----------------------------------|------------------------------ 
b|-----------------------------------|------------------------------ 
g|-7--------11--------9--------------|-----------7------------------ 
d|-----------------------------------|--2--------7--------7--------- 
a|-5---------9--------7--------------|--2--------5--------7--------- 
e|-----------------------------------|--0--------5--------5--------- 
 
then after the break, play the chorus twice 
 
finish 
zok 			      dan 
e|---------------------------|--------------------------- 
b|-0-0h2---3--2--------------|--------------------------- 
g|---------2--2--------------|---------7----------------- 
d|---------------------------|--7------7---7------------- 
a|---------------------------|--7------5---7------------- 
e|---------------------------|--5------5---5------------- 

		  

See also:

tabs Simon & Garfunkel - Sounds of silence tabs R.E.M. - Everybody Hurts tabs Guns N' Roses - Knockin' On Heaven's Door tabs John Mayer - Belief tabs The Wonders - That Thing You Do tabs Cheap Trick - The Flame
e-chords

Other versions:

tabs Gyroscope - Chapter 13
auto scroll beats size up size down change color hide chords drawings
tab show chords e-chords YouTube Clip e-chords hide all tabs e-chords go to top tab

share