Gwar

Knife In Yer Guts

Gwar

tabs nolevel nolevel

by  GUSTSILVA

save to print version add songbook text version e-mail correct tuner
chordsukulelecavacokeyboardtabbassdrumsharmonicaflute Guitar Pro
close

there isn't a video lesson for this song

chords

Knife In Yer Guts

	  		
All strings tuned half-step down. 

Intro 

eb|---------------------------------------------| 
Bb|---------------------------------------------| 
Gb|---------------------------------------------| 
Db|---------------------------------------------| 
Ab|--7-----7-----7-----7-----7-----7-----7------| 
Eb|----6-0---6-0---6-0---6-0---6-0---6-0---6-0--| 
 PM    . .   . .   . .   . .   . .   . .   . . 

eb|--------------------| 
Bb|--------------------| 
Gb|--------------------| 
Db|--------------------| 
Ab|--7-----------*7b~--| 
Eb|----6-0-6-5-0-------| x4 
 PM    . . . . . 

eb|---------------------------| 
Bb|---------------------------| 
Gb|---------------------------| 
Db|---------------------------| 
Ab|--7-----7-----7-----7------| 
Eb|----6-0---6-0---6-0---6-0--| 
 PM    . .   . .   . .   . . 


Verse 

eb|---------------------------| 
Bb|---------------------------| 
Gb|---------------------------| 
Db|--2-2-5-5\3\2-2-2----------| 
Ab|--2-2-5-5\3\2-2-2-------7--| 
Eb|--0-0-4p3\1p0-0-0-6-5-0----| x4 
 PM                  . . . 


Verse Break 

eb|-------------------------------------| 
Bb|-------------------------------------| 
Gb|-------------------------------------| 
Db|--7-7----X-8~~-7-7-------------------| 
Ab|--7-7----X-8~~-7-7-----7-----10------| 
Eb|--5-5----X-6~~-5-5-------6-0----9-0--| x2 


verse 2 

eb|---------------------------| 
Bb|---------------------------| 
Gb|---------------------------| 
Db|--2-2-5-5\3\2-2-2----------| 
Ab|--2-2-5-5\3\2-2-2-------7--| 
Eb|--0-0-4\3\1p0-0-0-6-5-0----| x3 
 PM                  . . . 

eb|---------------------------| 
Bb|---------------------------| 
Gb|---------------------------| 
Db|--2-2-5-5\3\2-2-2-5-3~-2~--| 
Ab|--2-2-5-5\3\2-2-2-5-3~-2~--| 
Eb|--0-0-4\3\1p0-0-0-3-1~-0~--| 


Chorus 

eb|--------------------------------| 
Bb|--------------------------------| 
Gb|--------------------------------| 
Db|-----------------------5-3~-2~--| 
Ab|--7-------5-7----7-----5-3~-2~--| 
Eb|----6-0-6-----0~---6-0-3-1~-0~--| x3 
 PM    . . .          . . 

eb|-----------------------------| 
Bb|-----------------------------| 
Gb|-----------------------------| 
Db|-----------------------5-3~--| 
Ab|--7-------5-7----7-----5-3~--| 
Eb|----6-0-6-----0~---6-0-3-1~--| 
 PM    . . .          . . 

eb|--------------------------------------| 
Bb|--------------------------------------| 
Gb|--------------------------------------| 
Db|--7~-7-7-7-7-7-7-7-7-7-7-7-7----------| 
Ab|--7~-7-7-7-7-7-7-7-7-7-7-7-7-*8b~-----| 
Eb|--5~-5-5-5-5-5-5-5-5-5-5-5-5------0~--| 
 PM     . . . . . . . . . . . . 

eb|-----------------------------| 
Bb|-----------------------------| 
Gb|-----------------------------| 
Db|-----------------------5-3~--| 
Ab|--7-------5-7----7-----5-3~--| 
Eb|----6-0-6-----0~---6-0-3-1~--| 
 PM    . . .          . . 

eb|--------------------------------------| 
Bb|--------------------------------------| 
Gb|--------------------------------------| 
Db|--7~-7-7-7-7-7-7-7-7-7-7-7-7----------| 
Ab|--7~-7-7-7-7-7-7-7-7-7-7-7-7-*8b~-----| 
Eb|--5~-5-5-5-5-5-5-5-5-5-5-5-5------0~--| 
 PM     . . . . . . . . . . . . 


Pre-Verse 

eb|--------------------| 
Bb|--------------------| 
Gb|--------------------| 
Db|--------------------| 
Ab|--7-----------*7b~--| 
Eb|----6-0-6-5-0-------| x4 
 PM    . . . . . 


Verse 

eb|---------------------------| 
Bb|---------------------------| 
Gb|---------------------------| 
Db|--2-2-5-5\3\2-2-2----------| 
Ab|--2-2-5-5\3\2-2-2-------7--| 
Eb|--0-0-4p3\1p0-0-0-6-5-0----| x4 
 PM                  . . . 


Verse Break 

eb|-------------------------------------| 
Bb|-------------------------------------| 
Gb|-------------------------------------| 
Db|--7-7----X-8~~-7-7-------------------| 
Ab|--7-7----X-8~~-7-7-----7-----10------| 
Eb|--5-5----X-6~~-5-5-------6-0----9-0--| x2 


verse 2 

eb|---------------------------| 
Bb|---------------------------| 
Gb|---------------------------| 
Db|--2-2-5-5\3\2-2-2----------| 
Ab|--2-2-5-5\3\2-2-2-------7--| 
Eb|--0-0-4\3\1p0-0-0-6-5-0----| x3 
 PM                  . . . 

eb|---------------------------| 
Bb|---------------------------| 
Gb|---------------------------| 
Db|--2-2-5-5\3\2-2-2-5-3~-2~--| 
Ab|--2-2-5-5\3\2-2-2-5-3~-2~--| 
Eb|--0-0-4\3\1p0-0-0-3-1~-0~--| 


Chorus 

eb|--------------------------------| 
Bb|--------------------------------| 
Gb|--------------------------------| 
Db|-----------------------5-3~-2~--| 
Ab|--7-------5-7----7-----5-3~-2~--| 
Eb|----6-0-6-----0~---6-0-3-1~-0~--| x3 
 PM    . . .          . . 

eb|-----------------------------| 
Bb|-----------------------------| 
Gb|-----------------------------| 
Db|-----------------------5-3~--| 
Ab|--7-------5-7----7-----5-3~--| 
Eb|----6-0-6-----0~---6-0-3-1~--| 
 PM    . . .          . . 

eb|--------------------------------------| 
Bb|--------------------------------------| 
Gb|--------------------------------------| 
Db|--7~-7-7-7-7-7-7-7-7-7-7-7-7----------| 
Ab|--7~-7-7-7-7-7-7-7-7-7-7-7-7-*8b~-----| 
Eb|--5~-5-5-5-5-5-5-5-5-5-5-5-5------0~--| 
 PM     . . . . . . . . . . . . 

eb|-----------------------------| 
Bb|-----------------------------| 
Gb|-----------------------------| 
Db|-----------------------5-3~--| 
Ab|--7-------5-7----7-----5-3~--| 
Eb|----6-0-6-----0~---6-0-3-1~--| 
 PM    . . .          . . 

eb|--------------------------------------| 
Bb|--------------------------------------| 
Gb|--------------------------------------| 
Db|--7~-7-7-7-7-7-7-7-7-7-7-7-7----------| 
Ab|--7~-7-7-7-7-7-7-7-7-7-7-7-7-*8b~-----| 
Eb|--5~-5-5-5-5-5-5-5-5-5-5-5-5------0~--| 
 PM     . . . . . . . . . . . . 


Break 

eb|---------------------------------------------------| 
Bb|---------------------------------------------------| 
Gb|---------------------------------------------------| 
Db|---------------------------------------------------| 
Ab|--7-----7-----7-----7---7---7-----7-----7-----6----| 
Eb|----6-0---6-0---6-0---6---6---6-0---6-0---6-0---6--| x4 
 PM    . .   . .   . .   .   .   . .   . .   . .   . 


Lead Harmony 

(after the second repeat of the break riff) 

eb|---------------------------------------------------| 
Bb|---------------------------------------------------| 
Gb|---------------------------------------------------| 
Db|--9-----9-----9-----9---9---9-----9-----9-----8----| 
Ab|----8-----8-----8-----8---8---8-----8-----8-----8--| 
Eb|------0-----0-----0-------------0-----0-----0------| x2 
 PM    . .   . .   . .   .   .   . .   . .   . .   . 

Break Continued 

eb|--------------------------------------| 
Bb|--------------------------------------| 
Gb|--------------------------------------| 
Db|--7~-7-7-7-7-7-7-7-7-7-7-7-7----------| 
Ab|--7~-7-7-7-7-7-7-7-7-7-7-7-7-*8b~-----| 
Eb|--5~-5-5-5-5-5-5-5-5-5-5-5-5------0~--| 
 PM     . . . . . . . . . . . . 

eb|-----------------------------| 
Bb|-----------------------------| 
Gb|-----------------------------| 
Db|-----------------------5-3~--| 
Ab|--7-------5-7----7-----5-3~--| 
Eb|----6-0-6-----0~---6-0-3-1~--| 
 PM    . . .          . . 

eb|--------------------------------------| 
Bb|--------------------------------------| 
Gb|--------------------------------------| 
Db|--7~-7-7-7-7-7-7-7-7-7-7-7-7----------| 
Ab|--7~-7-7-7-7-7-7-7-7-7-7-7-7-*8b~-----| 
Eb|--5~-5-5-5-5-5-5-5-5-5-5-5-5------0~--| 
 PM     . . . . . . . . . . . . 

eb|---------------------------------------------------| 
Bb|---------------------------------------------------| 
Gb|---------------------------------------------------| 
Db|--9-----9-----9-----9---9---9-----9-----9-----8----| 
Ab|----8-----8-----8-----8---8---8-----8-----8-----8--| 
Eb|------0-----0-----0-------------0-----0-----0------| x2 
 PM    . .   . .   . .   .   .   . .   . .   . .   . 

eb|---------------------------------------------------| 
Bb|---------------------------------------------------| 
Gb|---------------------------------------------------| 
Db|--8-----7-----6-----5---5---6-----7-----8-----9----| 
Ab|----7-----7-----7-----7---7---7-----7-----7-----8--| 
Eb|------0-----0-----0-------------0-----0-----0------| x2 
 PM    . .   . .   . .   .   .   . .   . .   . .   . 


Outro 

eb|-------------------------------------| 
Bb|-------------------------------------| 
Gb|-------------------------------------| 
Db|--7~-7-7-7-7-7-7-7-7-7-7-7-7---------| 
Ab|--7~-7-7-7-7-7-7-7-7-7-7-7-7-*8b~----| 
Eb|--5~-5-5-5-5-5-5-5-5-5-5-5-5------0--| 
 PM     . . . . . . . . . . . . 

eb|---------------------------| 
Bb|---------------------------| 
Gb|---------------------------| 
Db|------5-3~-2-------5-3~-2--| 
Ab|------5-3~-2-------5-3~-2--| 
Eb|------3-1~-0-------3-1~-0--| 

eb|-----------------------------| 
Bb|-----------------------------| 
Gb|-----------------------------| 
Db|------5-3~-2---------5-3~-2--| 
Ab|------5-3~-2--\\\\---5-3~-2--| 
Eb|------3-1~-0---\\\\--3-1~-0--|   
               (Pick Slide) 

eb|------------------------------| 
Bb|------------------------------| 
Gb|------------------------------| 
Db|--2-2-2-2--2-2-2-2-2--5-3~-2--| 
Ab|--2-2-2-2--2-2-2-2-2--5-3~-2--| 
Eb|--0-0-0-0--0-0-0-0-0--3-1~-0--| x2 
 PM  . . .    . . . .   

eb|--------------------------------| 
Bb|--------------------------------| 
Gb|--------------------------------| 
Db|--2-2-2-2-2-2-2-2-2-2-2-5-3~-2--| 
Ab|--2-2-2-2-2-2-2-2-2-2-2-5-3~-2--| 
Eb|--0-0-0-0-0-0-0-0-0-0-0-3-1~-0--| 
 PM  . . . . . . . . . . . 

eb|------------------------------| 
Bb|------------------------------| 
Gb|------------------------------| 
Db|--2-2-2-2--2-2-2-2-2--5-3~-2--| 
Ab|--2-2-2-2--2-2-2-2-2--5-3~-2--| 
Eb|--0-0-0-0--0-0-0-0-0--3-1~-0--| x2 
 PM  . . .    . . . .   

eb|--------------------------------| 
Bb|--------------------------------| 
Gb|--------------------------------| 
Db|--2-2-2-2-2-2-2-2-2-2-2-5-3~-2--| 
Ab|--2-2-2-2-2-2-2-2-2-2-2-5-3~-2--| 
Eb|--0-0-0-0-0-0-0-0-0-0-0-3-1~-0--| 
 PM  . . . . . . . . . . . 

eb|------------------------------| 
Bb|------------------------------| 
Gb|------------------------------| 
Db|--2-2-2-2--2-2-2-2-2--5-3~-2--| 
Ab|--2-2-2-2--2-2-2-2-2--5-3~-2--| 
Eb|--0-0-0-0--0-0-0-0-0--3-1~-0--| x2 
 PM  . . .    . . . .   

eb|--------------------------------| 
Bb|--------------------------------| 
Gb|--------------------------------| 
Db|--2-2-2-2-2-2-2-2-2-2-2-5-3~-2--| 
Ab|--2-2-2-2-2-2-2-2-2-2-2-5-3~-2--| 
Eb|--0-0-0-0-0-0-0-0-0-0-0-3-1~-0--| 
 PM  . . . . . . . . . . . 

eb|-----------------------------------------------------------| 
Bb|-----------------------------------------------------------| 
Gb|-----------------------------------------------------------| 
Db|--------5-3~-2--------5-3~-2-----------------------5-3~-2--| 
Ab|--------5-3~-2--------5-3~-2--7-------5-7----7-----5-3~-2--| 
Eb|--3-1-0-3-1~-0--3-1-0-3-1~-0----6-0-6-----0~---6-0-3-1~-0--| 
 PM  . . .         . . .           . . .          . . 
		  

See also:

tabs Deep Purple - Sometimes a Feel Like Screaming tabs Deep Purple - Mistreated tabs Deep Purple - Smoke on the Water (ver. 2) tabs Ira! - Vitrine Viva tabs Doa - Sexyest Girl tabs Deep Purple - Ted The Mechanic
e-chords

Other versions:

tabs Gwar - Knife In Yer Guts
auto scroll beats size up size down change color hide chords drawings
tab show chords e-chords YouTube Clip e-chords hide all tabs e-chords go to top tab

share with facebook