Gwar

King Queen

Gwar

tabs nolevel nolevel

by  SABRJOAO

save to print version add songbook text version e-mail correct tuner
chordsukulelecavacokeyboardtabbassdrumsharmonicaflute Guitar Pro
close

there isn't a video lesson for this song

chords

King Queen

	  		
Intro 

(I've never been too sure on this. 
The best video I could find was Balsac playing what looked like this in 89) 
  
eb|---------------------------------| 
Bb|---------------------------------| 
Gb|------------------------5-4------| 
Db|--2~--------2---3~------5-4-7-5--| 
Ab|--2~--------2---3~------3-2-7-5--| 
Eb|--0~--0-0-0-0-0-1~--0-0-----5-3--| x2 
  PM     . . .   .     . . 


Main Riff 

eb|---------------------------------| 
Bb|---------------------------------| 
Gb|----------------5~------5-4------| 
Db|--2~--------2---5~------5-4-7-5--| 
Ab|--2~--------2---3~------3-2-7-5--| 
Eb|--0~--0-0-0-0-0-----0-0-----5-3--| x3 
  PM     . . .   .     . . 

eb|---------------------------------| 
Bb|---------------------------------| 
Gb|----------------5--5--5-5-4------| 
Db|--2~--------2---5--5--5-5-4-7-5--| 
Ab|--2~--------2---3--3--3-3-2-7-5--| 
Eb|--0~--0-0-0-0-0-------------5-3--| 
  PM     . . .   . 


Verse 

eb|----------------------------------| 
Bb|----------------------------------| 
Gb|----------------------------------| 
Db|--2-2-2---2--------2--------------| 
Ab|--2-2-2-3---0-2-3~---3-2-3-2------| 
Eb|--0-0-0----------------------5-3--| x4 
  PM . . .              . . . . 


Verse Break Solo  

(rhythm plays main riff) 

eb|---------------------------------------------| 
Bb|-------------7~-8-10~-8-7--------------------| 
Gb|--------7~----------------7~~-----------6~~--| 
Db|--7h8h9----9-------------------0-8-0-7~------| 
Ab|---------------------------------------------| 
Eb|---------------------------------------------| 

eb|-----------------------------------------| 
Bb|------------------------------------8~~--| 
Gb|------------------------7~--------7------| 
Db|--7-8-9-9~-9-X-7~~--7-5-----7-7h9--------| 
Ab|-----------------------------------------| 
Eb|-----------------------------------------| 


Verse 

eb|----------------------------------| 
Bb|----------------------------------| 
Gb|----------------------------------| 
Db|--2-2-2---2--------2--------------| 
Ab|--2-2-2-3---0-2-3~---3-2-3-2------| 
Eb|--0-0-0----------------------5-3--| x4 
  PM . . .              . . . . 


Pre-Chorus 

eb|-------------------------------| 
Bb|-------------------------------| 
Gb|---------8-7-------------------| 
Db|--2~-----8-7-X-X-5-5-5-7~-7-8--| 
Ab|--2~-----6-5-X-X-5-5-5-7~-7-8--| 
Eb|--0~-0-0-----X-X-3-3-3-5~-5-6--| 
  PM    . .     . . . . . 

eb|---------------------------------| 
Bb|---------------------------------| 
Gb|---------------------------------| 
Db|--2~----------X-X-5-5-8~-5-5-8~--| 
Ab|--2~-----+6p5-X-X-5-5-8~-5-5-8~--| 
Eb|--0~-0-0------X-X-3-3-6~-3-3-6~--| x4 
  PM    . .      . . 

"Now it's time, almost time" 
eb|-------------------------------------------| 
Bb|-------------------------------------------| 
Gb|-------------------------------------------| 
Db|----------------------------5-5-8~-5-5-8~--| 
Ab|----------------------------5-5-8~-5-5-8~--| 
Eb|----------------------------3-3-6~-3-3-6~--| 


Pre-Verse Solo 

(rhythm plays main riff) 

eb|----------12-15----12~-------------------------------| 
Bb|----------------15---------------------14------------| 
Gb|-------14--------------14p12p0-12~~-15----15-12br~~--| 
Db|--14~~-----------------------------------------------| 
Ab|-----------------------------------------------------| 
Eb|-----------------------------------------------------| 

eb|--0-0-0-0-0-6-0-0-12-0-0-6-0-0-6-0-0-6-5-----6-5----------------| 
Bb|-----------------------------------------6-5-----6-/7-7~-8-7~~--| 
Gb|----------------------------------------------------------------| 
Db|----------------------------------------------------------------| 
Ab|----------------------------------------------------------------| 
Eb|----------------------------------------------------------------| 


Verse 

eb|----------------------------------| 
Bb|----------------------------------| 
Gb|----------------------------------| 
Db|--2-2-2---2--------2--------------| 
Ab|--2-2-2-3---0-2-3~---3-2-3-2------| 
Eb|--0-0-0----------------------5-3--| x4 
  PM . . .              . . . . 

   
Chorus 

eb|-------------------------------------------| 
Bb|-------------------------------------------| 
Gb|----------------------------6~~------------| 
Db|-----2-2----2-2----2-2----5-6~~--4~~--3~~--| 
Ab|--7\-2-2-7\-2-2-7\-2-2-7\-5-4~~--4~~--3~~--| 
Eb|--0--0-0-0--0-0-0--0-0-0--3------2~~--1~~--| 
  PM    . .    . .    . . 

eb|----------------------------------------------------------| 
Bb|----------------------------------------------------------| 
Gb|---------+2b~~rh0-------------------------------8-8-8-7~--| 
Db|--2~-2-2----------2-----------------------------8-8-8-7~--| 
Ab|--2~-2-2------------3-2-1---------+1~~----------6-6-6-5~--| 
Eb|--0~-0-0------------------3-2-1-0-------------------------| 
  PM    . . 

(Rhythm (what I could hear)) 
eb|---------------------------------------| 
Bb|---------------------------------------| 
Gb|---------9---7---------------3~~-------| 
Db|--2~-2-2-9---7-2-2-2-2-2-2-2-3~~-------| 
Ab|--2~-2-2-7---5-2-2-2-2-2-2-2-1~~-------| 
Eb|--0~-0-0---0---0-0-0-0-0-0-0-----------| 
   PM   . .   .   . . . . . . . 

(Lead) 
eb|---------------------------------------------------| 
Bb|---------------------------------------------------| 
Gb|----------------------------------------------3~~--| 
Db|-------------+2h3p2----------------+2h3p2/8\2-3~~--| 
Ab|--+2h3p2--------------+2h3p2---1--------------1~~--| 
Eb|---------0-0--------0--------0---0-----------------| 
   PM       . .        .        . . . 

eb|--------------| 
Bb|--------------| 
Gb|-----7--------| 
Db|--/8---8-7~~--| 
Ab|--------------| 
Eb|--------------| 


Bass Break 

eb|-------------------| 
Bb|-------------------| 
Gb|-------5----4------| 
Db|--2----5----4-7-5--| 
Ab|--2----3----2-7-5--| 
Eb|--0-----------5-3--| 

eb|----------| 
Bb|----------| 
Gb|-------5--| 
Db|--2----5--| 
Ab|--2----3--| 
Eb|--0-------| 


Solo 

(totally unsure of this) 
  
eb|----------------7-7-7-7----------| 
Bb|----------------7-7-7-7----------| 
Gb|------4-4-4-----4-4-4-4-4--------| 
Db|--2-3-------2-3-----------5-4-2--| 
Ab|---------------------------------| 
Eb|---------------------------------| x4 


Verse 

eb|----------------------------------| 
Bb|----------------------------------| 
Gb|----------------------------------| 
Db|--2-2-2---2--------2--------------| 
Ab|--2-2-2-3---0-2-3~---3-2-3-2------| 
Eb|--0-0-0----------------------5-3--| x4 
  PM . . .              . . . . 
   
   
Pre-Chorus 
                                 
eb|-------------------------------| 
Bb|-------------------------------| 
Gb|---------8-7-------------------| 
Db|--2~-----8-7-X-X-5-5-5-7~-7-8--| 
Ab|--2~-----6-5-X-X-5-5-5-7~-7-8--| 
Eb|--0~-0-0-----X-X-3-3-3-5~-5-6--| 
  PM    . .     . . . . . 

eb|---------------------------------| 
Bb|---------------------------------| 
Gb|---------------------------------| 
Db|--2~----------X-X-5-5-8~-5-5-8~--| 
Ab|--2~-----+6p5-X-X-5-5-8~-5-5-8~--| 
Eb|--0~-0-0------X-X-3-3-6~-3-3-6~--| x4 
  PM    . .      . . 

"Now it's time, almost time" 
eb|-------------------------------------------| 
Bb|-------------------------------------------| 
Gb|-------------------------------------------| 
Db|----------------------------5-5-8~-5-5-8~--| 
Ab|----------------------------5-5-8~-5-5-8~--| 
Eb|----------------------------3-3-6~-3-3-6~--|                  
                                                         

(TIME TO DIE) 

eb|---------------------| 
Bb|---------------------| 
Gb|----------------4~~--| 
Db|--2~------------4~~--| 
Ab|--2~-----+6p5---2~~--| 
Eb|--0~-0-0------0------| 
  PM    . .      . 

eb|-----------------------| 
Bb|-----------------------| 
Gb|----------------5-4~~--| 
Db|--2~------------5-4~~--| 
Ab|--2~-----+6p5---3-2~~--| 
Eb|--0~-0-0------0--------| 
  PM    . .      . 

eb|---------------------| 
Bb|---------------------| 
Gb|----------------4~~--| 
Db|--2~------------4~~--| 
Ab|--2~-----+6p5---2~~--| 
Eb|--0~-0-0------0------| 
  PM    . .      . 

eb|-----------------------------| 
Bb|-----------------------------| 
Gb|----------------5-4----------| 
Db|--2~------------5-4-5-2-2-2--| 
Ab|--2~-----+6p5---3-2-5-2-2-2--| 
Eb|--0~-0-0------0-----3-0-0-0--| 
  PM    . .      .       . . . 


Final Verse 

eb|-----------------------------------| 
Bb|-----------------------------------| 
Gb|------------------6-----5-----3~~--| 
Db|--2~--------------6-----5-----3~~--| 
Ab|--2~-----+6p5-----4-----3-----1~~--| 
Eb|--0~-0-0------0-0---0-0---0-0------| x8 
  PM    . .      . .   . .   . . 


Return 

eb|---------------------------------------| 
Bb|---------------------------------------| 
Gb|--9---------------9---------------9~~--| 
Db|--9---------------9---------------9~~--| 
Ab|--7---------------7---------------7~~--| 
Eb|----0-0-0-0-0-0-0---0-0-0-0-0-0-0-0~~--| 
  PM   . . . . . . .   . . . . . . . 


Final Chorus 

 (Rhythm) 
eb|-----------------------------------| 
Bb|-----------------------------------| 
Gb|---------9---7~---------------3~~--| 
Db|--2~-2-2-9---7~-7-8-7-9-7-10\-3~~--| 
Ab|--2~-2-2-7---5~-5-6-5-7-5--8\-1~~--| 
Eb|--0~-0-0---0-----------------------| 
   PM   . .   .    . . . . .  . 
  
(Lead) 
eb|------------------------------------------| 
Bb|------------------------------------------| 
Gb|-------------------------0---2---+3\-3~~--| 
Db|--2~-------------2h3p2-0---0---0-----3~~--| 
Ab|--2~-----2h3p2-----------------------1~~--| 
Eb|--0~-0-0-------0--------------------------| 
 PM   . .       . 

eb|--------------------| 
Bb|--------------------| 
Gb|-----7---------4~~--| 
Db|--/8---8-7~~---4~~--| 
Ab|---------------2~~--| 
Eb|--------------------| 

eb|---------------------| 
Bb|---------------------| 
Gb|--8-8-8-7~~----------| 
Db|--8-8-8-7~~-----2~~--| 
Ab|--6-6-6-5~~-----2~~--| 
Eb|----------------0~~--| 

eb|--------------------| 
Bb|--------------------| 
Gb|-----7---------4~~--| 
Db|--/8---8-7~~---4~~--| 
Ab|---------------2~~--| 
Eb|--------------------| 

eb|---------------------| 
Bb|---------------------| 
Gb|--8-8-8-7~~----------| 
Db|--8-8-8-7~~-----2~~--| 
Ab|--6-6-6-5~~-----2~~--| 
Eb|----------------0~~--| 





************************** 
|PM     Palm Muting 
|~      Hold Note/Vibrato 
|X      Mute Note 
|/      Slide Up 
|\      Slide Down 
|b      Bend 
|h      Hammer-On 
|p      Pull-Off 
|+      Pinch Harmonic 
*************************** 
		  

See also:

tabs Doa - Sexyest Girl tabs Deep Purple - Smoke on the water (intro) tabs Deep Purple - Highway Star tabs Albert Hammond Jr - Holiday tabs Deep Purple - Deep Purple - Smoke On The Water tabs Deep Purple - Ted The Mechanic
e-chords

Other versions:

tabs Gwar - King Queen
auto scroll beats size up size down change color hide chords drawings
tab show chords e-chords YouTube Clip e-chords hide all tabs e-chords go to top tab

share with facebook