Gwar

In Her Fear

Gwar

tabs nolevel nolevel

by  TARIKIKE

save to print version add songbook text version e-mail correct tuner
chordsukulelecavacokeyboardtabbassdrumsharmonicaflute Guitar Pro
close

there isn't a video lesson for this song

chords

In Her Fear

	  		One of the strangest GWAR songs ever. It doesn't even feel like GWAR. 


All strings tuned half-step down. 


INTRO 
|-------------------| 
|-------------------| 
|--4~~--------------| 
|--4~~---5~~---2~~--| 
|--2~~---5~~---2~~--| 
|--------3~~---0~~--| x4 


Chorus 
|-----------------------------------------------------------------| 
|-----------------------------------------------------------------| 
|--4-4-4-4-4-4-4-4-8-8-8-8-8-8-8-8--------------------------------| 
|--4-4-4-4-4-4-4-4-8-8-8-8-8-8-8-8-6-6-6-6-6-6-6-6-6-6-6-4--4--4--| 
|--2-2-2-2-2-2-2-2-6-6-6-6-6-6-6-6-6-6-6-6-6-6-6-6-6-6-6-4--4--4--| 
|----------------------------------4-4-4-4-4-4-4-4-4-4-4-2--2--2--| \ 
                                                                     x2 
|-----------------------------------------------------------------| / 
|-----------------------------------------------------------------| 
|--4-4-4-4-4-4-4-4-8-8-8-8-8-8-8-8--------------------------------| 
|--4-4-4-4-4-4-4-4-8-8-8-8-8-8-8-8-6-6-6-6-6-6-6-6-6-6-6-6--4--4--| 
|--2-2-2-2-2-2-2-2-6-6-6-6-6-6-6-6-6-6-6-6-6-6-6-6-6-6-6-6--4--4--| 
|----------------------------------4-4-4-4-4-4-4-4-4-4-4-4--2--2--|  


VERSE PART I 
|--10-10-10--10-10--10-10-10-10--10-10--10--| 
|--10-10-10--10-10--10-10-10-10--10-10--10--| 
|---7--7--7---7--7---7--7--7--7---7--7---7--| 
|---7--7--7---7--7---7--7--7--7---7--7---7--| 
|-------------------------------------------| 
|-------------------------------------------| 

|------------------------------| 
|------------------------------| 
|--6-6-6--6-6-6--6-6-6--6-6-6--| 
|--6-6-6--6-6-6--6-6-6--6-6-6--| 
|--4-4-4--4-4-4--4-4-4--4-4-4--| 
|------------------------------| x2 


VERSE PART II 
|------------------------------| 
|------------------------------| 
|--7-7-7--7-7-7--7-7-7--7-7-7--| 
|--7-7-7--7-7-7--7-7-7--7-7-7--| 
|--5-5-5--5-5-5--5-5-5--5-5-5--| 
|------------------------------| 

|--9-9-9--9-9--9-9-9-9--9-9--9--| 
|--9-9-9--9-9--9-9-9-9--9-9--9--| 
|--6-6-6--6-6--6-6-6-6--6-6--6--| 
|--6-6-6--6-6--6-6-6-6--6-6--6--| 
|-------------------------------| 
|-------------------------------| x2 


Repeat        Chorus 


BREAK (Played on top of INTRO) 
|----------------------------7-0----| 
|--------------------------------0--| 
|------4-----4---4-----4------------| 
|--4-4---4-4---4---5-5---5-5--------| 
|-----------------------------------| 
|-----------------------------------| 

|----------------0----| 
|------------------0--| 
|------4-----4--------| 
|--2-2---2-2---2------| 
|---------------------| 
|---------------------| x4 
             ^^^^^^^ 
             Freely pick these notes 
             for the rest of the phrase. 


BREAK END (Played over fourth repeat of the second part of BREAK) 
|-----------------------------------| 
|-----------------------------------| 
|--9-9-9-9-9-9-9-9-9-9-9-9-9-9-9-9--| 
|--9-9-9-9-9-9-9-9-9-9-9-9-9-9-9-9--| 
|--7-7-7-7-7-7-7-7-7-7-7-7-7-7-7-7--| 
|-----------------------------------| 


Repeat        Chorus 


BREAK 
|------------------------------| 
|------------------------------| 
|------------------------------| 
|--7-7-7--7-7-7--7-7-7--7-7-7--| 
|--7-7-7--7-7-7--7-7-7--7-7-7--| 
|--5-5-5--5-5-5--5-5-5--5-5-5--| 


KEY CHANGE 
|-------------------------------------------| 
|-------------------------------------------| 
|--7-7-7-7-7-7-7-7-11-11-11-11-11-11-11-11--| 
|--7-7-7-7-7-7-7-7-11-11-11-11-11-11-11-11--| 
|--5-5-5-5-5-5-5-5--9--9--9--9--9--9--9--9--| 
|-------------------------------------------| 

|--------------------------------| 
|--------------------------------| 
|--------------------------------| 
|--9-9-9-9-9-9-9-9-9-9-9-9--7-7--| 
|--9-9-9-9-9-9-9-9-9-9-9-9--7-7--| 
|--7-7-7-7-7-7-7-7-7-7-7-7--5-5--| x2 


|-------------------------------------------| 
|-------------------------------------------| 
|--7-7-7-7-7-7-7-7-11-11-11-11-11-11-11-11--| 
|--7-7-7-7-7-7-7-7-11-11-11-11-11-11-11-11--| 
|--5-5-5-5-5-5-5-5--9--9--9--9--9--9--9--9--| 
|-------------------------------------------| 

|---------------------------------| 
|---------------------------------| 
|---------------------------------| 
|--9-9-9-9-9-9-9-9-9-9-9-7--7--7--| 
|--9-9-9-9-9-9-9-9-9-9-9-7--7--7--| 
|--7-7-7-7-7-7-7-7-7-7-7-5--5--5--| x2 


OUTRO 
|Guitar 1 
|------------------------------| 
|------------------------------| 
|--4-4-4--4-4-4--4-4-4--4-4-4--| 
|--4-4-4--4-4-4--4-4-4--4-4-4--| 
|--2-2-2--2-2-2--2-2-2--2-2-2--| 
|------------------------------| 
| 
|Guitar 2 
|-------------------------------------------| 
|-------------------------------------------| 
|--11-11-11--11-11--11-11-11-11--11-11--11--| 
|-------------------------------------------| 
|---9--9--9---9--9---9--9--9--9---9--9---9--| 
|-------------------------------------------| 

|------------------------------| 
|------------------------------| 
|--3-3-3--3-3-3--3-3-3--3-3-3--| 
|--3-3-3--3-3-3--3-3-3--3-3-3--| 
|--1-1-1--1-1-1--1-1-1--1-1-1--| 
|------------------------------| 
| 
|------------------------------------------| 
|------------------------------------------| 
|--10-10-10--10-10-10--10-10-10--10-10-10--| 
|------------------------------------------| 
|---8--8--8---8--8--8---8--8--8---8--8--8--| 
|------------------------------------------| 

|----------------------------| 
|----------------------------| 
|--4-4-4--4-4-4--4-4-4--4-4--| 
|--4-4-4--4-4-4--4-4-4--4-4--| 
|--2-2-2--2-2-2--2-2-2--2-2--| 
|----------------------------| 
| 
|---------------------------------------| 
|---------------------------------------| 
|--11-11-11--11-11-11--11-11-11--11-11--| 
|---------------------------------------| 
|---9--9--9---9--9--9---9--9--9---9--9--| 
|---------------------------------------| 

|-------| 
|-------| 
|--3~~--| 
|--3~~--| 
|--1~~--| 
|-------| 
| 
|---------| 
|---------| 
|--/10~~--| 
|---------| 
|--//8~~--| 
|---------| 




Legend 
======== 
~    | Hold Note/Vibrato 
/    | Slide Up 




  
Feedback is welcomed. 

-- DH 
======================================================== 
		  

See also:

tabs Doa - Sexyest Girl tabs Deep Purple - Smoke on the water (intro) tabs Deep Purple - Highway Star tabs Albert Hammond Jr - Holiday tabs Deep Purple - Deep Purple - Smoke On The Water tabs Deep Purple - Ted The Mechanic
e-chords

Other versions:

tabs Gwar - In Her Fear
auto scroll beats size up size down change color hide chords drawings
tab show chords e-chords YouTube Clip e-chords hide all tabs e-chords go to top tab

share with facebook