Guns N' Roses

home > Guns N' Roses

The Garden Tab

Guns N' Roses

Difficulty: AdvancedAdvanced

by %5Fslash%5Frose%5F

tuner correct add songbook print version text version save to e-mail
chordsukulelecavacokeyboardtabbassdrummharmonicsflute Guitar Pro
chords

The Garden

Year: 1991 - Album: Use Your Illusion I

  		|------------------2-2-2---2-|------------------2-2-2---2-| 
|------------------1-1-1---1-|------------------0-0-0---0-| 
|------------------2-2-2---2-|------------------2-2-2---2-| 
|-----------4p0----0---------|-----------3p0----0---------| 
|-3h5p3---0--------------0---|-3h5p3---0--------------0---| 
|-------6--------0-----------|-------6--------0-----------| 
  
                                              (end fig.1) 
|----------------------0----|------------------2--2---2--| 
|-------------------3--3--3-|------------------1--1---1--| 
|-------------------3-----3-|------------------2--2---2--| 
|------------3p0----0-----0-|-----------4p0--------------| 
|--3h5p3---0----------------|--3h5p3---0------------0----| 
|--------6--------0---------|-------6--------0-----------| 
 
 w/fig.1 
|------8----7/8\7-----------------------| 
|-8/10------------7/8---\7--------------| 
|---------------------------7\5--(5)/7--| 
|---------------------------------------| 
|---------------------------------------| 
|---------------------------------------| 
 
verse: w/fig.1 ,3x  
then: 
|-----------------------------------------10------10-------/15-14-12-(12)/14-| 
|----7-8\7-----7-8\7\-----/8-8-7--(7)\3/-----10--(10)--10--------------------| 
|-7--------5-----------4-----------------------------------------------------| 
|----------------------------------------------------------------------------| 
|----------------------------------------------------------------------------| 
|----------------------------------------------------------------------------| 
 
|-(14)\12\10-10-------10------------------| 
|----------------8/10----8-7--5/7---------| 
|---------------------------------7\5-5/7-| 
|-----------------------------------------| 
|-----------------------------------------| 
|-----------------------------------------| 
 
CHORUS: 4x 
|--------------------------------------------------------| 
|--------------------------------------------------------| 
|-5-7-7-7-7--(7)\-10-----9/10-10-10--7/9-9-9-9--(9)\-5-5-| 
|-5/7-7-7-7--(7)\-10-----9/10-10-10--7/9-9-9-9--(9)\-5-5-| 
|-3/5-5-5-5--(5)\--8--x--7/8---8--8--5/7-7-7-7--(7)\-3-3-| 
|--------------------------------------------------------| 
 
|------------------------------------------10-10-10/12-12/14--14/15\14-| 
|-----7/8\7-----7-8\7----/8-8-7-(7)-(7)/10-----------------------------| 
|-5/7-------5/7-------4------------------------------------------------| 
|----------------------------------------------------------------------| 
|----------------------------------------------------------------------| 
|----------------------------------------------------------------------| 
 
|-14\12-12-12-(12)/14-(14)\10-10--------------------------------| 
|--------------------------------10/12-10-8-7-(7)---------------| 
|--------------------------------------------------(7)-7\5-(5)/-| 
|---------------------------------------------------------------| 
|---------------------------------------------------------------| 
|---------------------------------------------------------------| 
 
SOLO: 
|------------10--------------------------------------------------------------| 
|-13fb~~~-10----13p10-13p12p10----10-13p10----10------10p13p10------10-13p10-| 
|------------------------------13----------13----12fb----------12fb----------| 
|----------------------------------------------------------------------------| 
|----------------------------------------------------------------------------| 
|----------------------------------------------------------------------------| 
 
|---------------------------------------------------------------------------| 
|------10------10--------------------------------------------------15----15-| 
|-12fb----12fb----13p12p10-12-12-12p10------12----10~~-12-10-12/14----14----| 
|----------------------------------------12----12---------------------------| 
|---------------------------------------------------------------------------| 
|---------------------------------------------------------------------------| 
 
|-----------------13qb-------15hb-15-(15)p13----16p15-(15)p13-15-15hbr-15-13-| 
|----15~~~~-15---------15-13-----------------15------------------------------| 
|-14-----------14------------------------------------------------------------| 
|----------------------------------------------------------------------------| 
|----------------------------------------------------------------------------| 
|----------------------------------------------------------------------------| 
 
|-15fb-x-13qb----------------------------------10-10----10----------------------| 
|-------------15--------------------------13fb-------13----10-------------------| 
|----------------x-12fbrfb-10-12-10---------------------------13-10-12-12hbrp10-| 
|-----------------------------------12-10---------------------------------------| 
|-------------------------------------------------------------------------------| 
|-------------------------------------------------------------------------------| 
 
|----------------------------------------------------------------------------| 
|-------------10-------------------------------------------------------------| 
|-12-10-------10-------------------------------------------------------10----| 
|-------12-10----12-10\9-10-9-----------------------------10-12p10-12-----12-| 
|-----------------------------12p11-12-10hbrp8-10-8-10/12--------------------| 
|----------------------------------------------------------------------------| 
 
|-------------------------------------------10h12----10h12/15--17hb-17-16-15------------| 
|---------------12----10-12p10----10-12h13--------13-------------------------17fb-17hb~-| 
|-10-12qbp10-12----12----------12-------------------------------------------------------| 
|---------------------------------------------------------------------------------------| 
|---------------------------------------------------------------------------------------| 
|---------------------------------------------------------------------------------------| 
 
|----------------------------------------------------------------------------| 
|-17p15----18-17h18p17p15----18-17h18p17p15----18--17h18p17p15----17fb-17-15-| 
|-------14----------------16----------------16-----------------16------------| 
|----------------------------------------------------------------------------| 
|----------------------------------------------------------------------------| 
|----------------------------------------------------------------------------| 
 
|------20------20----------------------------------------------------------------------| 
|-20fb----20fb----r20p18-20-18fb--r--17~-17-17hb-17-18p17----17------------------------| 
|---------------------------------------------------------19----19-17------------------| 
|---------------------------------------------------------------------19-17-15-17------| 
|---------------------------------------------------------------------------------15fb-| 
|--------------------------------------------------------------------------------------| 
 
VERSE: w/fig.1 x2 
 
|-----14-15\14/20--(20)\14-15\14-/19--(19)\14-15\14/17--(17)\-| 
|-15----------------------------------------------------------| 
|-------------------------------------------------------------| 
|-------------------------------------------------------------| 
|-------------------------------------------------------------| 
|-------------------------------------------------------------| 
 

	  

Search Paypal
auto scroll beats size up size down change color hide chords drawings
tab show chords e-chords YouTube Clip e-chords hide all tabs e-chords go to top tab