Guns N' Roses

home > Guns N' Roses

Dust N' Bones Tab

Guns N' Roses

Difficulty: nolevelnolevel

by iagovillareal

tuner correct add songbook print version text version save to e-mail
chordsukulelecavacokeyboardtabbassdrummharmonicsflute Guitar Pro
chords

Dust N' Bones

  		
  W          +W            +W            +W 
|----------|------------|-------------|---------| 
|----------|------------|-------------|---------| 
|----------|------------|-------------|---------| 
|-2--------|-(2)--------|--(2)--------|--(2)----| 
|-2--------|-(2)--------|--(2)--------|--(2)----| 
|-0--------|-(0)--------|--(0)--------|--(0)----| 
| 
| Gtr I 
| W           W            +W            +W 
|----------|-10---------|-(10)--------|-(10)----| 
|----------|------------|-------------|---------| 
|----------|------------|-------------|---------| 
|----------|------------|-------------|---------| 
|----------|------------|-------------|---------| 
|----------|------------|-------------|---------| 


  E E H.        E E Q  E E Q 
|-------------|----------------| 
|-------------|----------------| 
|-----2-------|----------------| 
|---2---------|-----0------0---| 
|-0-----------|---2------0-----| 
|-------------|-3------2-------| 
| 
| W             H      Q   Q 
|-------------|------------x--| 
|-------------|------------x--| 
|-------------|----------------| 
|-------------|----------------| 
|-------------|----------------| 
|-------------|----------------| 


             |----3----|                   |---3---| 
  Q  Q  E E  E  E      E    Q    Q      Q  E   E   E 
|------------------------|---------------------------| 
|------------------------|---------------------------| 
|------------------------|---------------------------| 
|-2--2--0-2--2p=0------0-|--2----2------2--0h==2---2-| 
|-2--2--0-2--2p=0------0-|--2----2------2--0h==2---2-| 
|-0--0--0-0--------------|--0----0------0------------| 
| 
| Q  H      +E    E        +Q    Q      Q  E     E 
|----0------(0)----------|-------3b3.5--0--------0---| 
|----0------(0)---3b5====|=(3)r------------3b5-------| 
|------------------------|---------------------------| 
|------------------------|---------------------------| 
|------------------------|---------------------------| 
|-0----------------------|---------------------------| 


   E  E E   E   E E E   E   +Q      Q       X T. +E.     +Q 
|-------------------------|--------------------------------------| 
|-------------------------|--------------------------------------| 
|-------------------------|--------------------------------------| 
|--2--x-2---x---0-2-----2-|-(2)----------------------------------| 
|--2--x-2---x---0-2-----2-|-(2)-------------5s7--(7)-----(7)-----| 
|--0--x-0---x---0-------0-|-(0)----------------------------------| 
| 
|       |--3--|              |-3--| |--3--| |----3-----|  |-3--| 
| +E  E E E   E E E E   E    E  E E E   E E E        E E  E  E E 
|-(0)---------------------|--------------------------------------| 
|-----0-0-0---0---------0-|--3----0------------------------------| 
|---------------2-0-2b4---|-----2---2b3-2-0-2--------0----0------| 
|-------------------------|----------------------------2-----2-0-| 
|-------------------------|--------------------------------------| 
|-------------------------|--------------------------------------| 


  Q   Q     E  Q   E   E E E E E Q   E 
|--------------------|------------------| 
|--------------------|------------------| 
|--------------------|------------------| 
|-2---2-----0--2---0-|-2-x-2-x-0-2---0--| 
|-2---2-----0--2---0-|-2-x-2-x-0-2---0--| 
|-0---0-----0--0---0-|-0-x-0-x-0-0---0--| 
| 
| E E Q    +Q    Q     E Q   Q   Q. 
|--------------------|------------------| 
|--------------------|------------------| 
|--------------------|------------------| 
|-----7b8r=(7)---5---|-7-5---5----------| 
|--------------------|-----------7------| 
|-0------------------|------------------| 


  E E E   E  E  Q   E   E E E E E Q   E 
|---------------------|-----------------| 
|---------------------|-----------------| 
|---------------------|-----------------| 
|-2-x-2---x--0--2---0-|-2-x-2-x-0-2---0-| 
|-2-x-2---x--0--2---0-|-2-x-2-x-0-2---0-| 
|-0-x-0---x--0--0---0-|-0-x-0-x-0-0---0-| 
| 
| E E Q     +Q    Q     E Q   Q   Q. 
|---------------------|-----------------| 
|---------------------|-----------------| 
|---------------------|-----------------| 
|-----7b8r==(7)---5---|-7-5-------------| 
|---------------------|-------5---7-----| 
|-0-------------------|-----------------| 


  E E H.               E E Q  E   E Q 
|--------------------|--------------------| 
|--------------------|--------------------| 
|-----2--------------|--------------------| 
|---2----------------|-----0--------0-----| 
|-0------------------|---2--------0-------| 
|--------------------|-3------2-----------| 
| 
|              |-3-| 
| E H      +E  E E E   H      Q     Q 
|--------------------|--------------------| 
|--------------------|--------------------| 
|--------------------|--------------------| 
|-5-7------(7)-7-5---|-5------------------| 
|------------------7-|--------5b7---5b7---| 
|--------------------|--------------------| 


                      |-3-| |---3---| |--3--| |----3----| 
  Q  Q  E   E E E     E E E E   E   E E E   E E   E     E 
|-------------------|-------------------------------------------| 
|-------------------|-------------------------------------------| 
|-------------------|-------------------------------------------| 
|-2--2--0---2-0-2---|-------------------------------------------| 
|-2--2--0---2-0-2---|-0h2-2-0h==2---2-0h2---2-0h==2-----2-------| 
|-0--0--0---0-0-0---|-0-----------------------------------------| 
| 
| Q  Q  E   Q   E     Q     E     Q       E   E     +T.   S +X 
|----0------0-------|-0-----------0-----------------------------| 
|----0--3b5---------|-------3b5-----------0---------------------| 
|---------------2b4-|-------------------------2b3r==(2)---0-(0)-| 
|-------------------|-------------------------------------------| 
|-------------------|-------------------------------------------| 
|-0-----------------|-------------------------------------------| 


  Q   Q     E  Q   E   E E E E E Q   E 
|--------------------|-----------------| 
|--------------------|-----------------| 
|--------------------|-----------------| 
|-2---2-----0--2---0-|-2-x-2-x-0-2---0-| 
|-2---2-----0--2---0-|-2-x-2-x-0-2---0-| 
|-0---0-----0--0---0-|-0-x-0-x-0-0---0-| 
| 
| E E Q    +Q    Q     E Q   Q   Q. 
|--------------------|-----------------| 
|--------------------|-----------------| 
|--------------------|-----------------| 
|-----7b8r=(7)---5---|-7-5---5---------| 
|--------------------|-----------7-----| 
|-0------------------|-----------------| 


  E E E   E  E  Q   E   E E E E E Q   E 
|---------------------|-----------------| 
|---------------------|-----------------| 
|---------------------|-----------------| 
|-2-x-2---x--0--2---0-|-2-x-2-x-0-2---0-| 
|-2-x-2---x--0--2---0-|-2-x-2-x-0-2---0-| 
|-0-x-0---x--0--0---0-|-0-x-0-x-0-0---0-| 
| 
| E E Q     +Q    Q     E Q   Q   Q. 
|---------------------|-----------------| 
|---------------------|-----------------| 
|---------------------|-----------------| 
|-----7b8r==(7)---5---|-7-5-------------| 
|---------------------|-------5---7-----| 
|-0-------------------|-----------------| 


  E E H.               E E Q  E   E Q 
|--------------------|--------------------| 
|--------------------|--------------------| 
|-----2--------------|--------------------| 
|---2----------------|-----0--------0-----| 
|-0------------------|---2--------0-------| 
|--------------------|-3------2-----------| 
| 
|              |-3-| 
| E H      +E  E E E   H      Q     Q 
|--------------------|--------------------| 
|--------------------|--------------------| 
|--------------------|--------------------| 
|-5-7------(7)-7-5---|-5------------------| 
|------------------7-|--------5b7---5b7---| 
|--------------------|--------------------| 


  Q  Q  E   E E E     E E E   E E Q      E          H    Q  Q    Q  Q  Q  Q 
|-------------------|-----------------------------|------0--2--|-3--2--0-----| 
|-------------------|-----------------------------|-3----3--3--|-3--3--3--3--| 
|-------------------|-----------------------------|-2----2--2--|-2--2--2--2--| 
|-2--2--0---2-0-2---|-2-2-----2---2---------------|-0----0--0--|-0--0--0--0--| 
|-2--2--0---2-0-2---|-2-2-----2---2---------------|------------|-------------| 
|-0--0--0---0-0-0---|-0-0-----0---0---------------|------------|-------------| 
| 
| Q  Q  E   Q   E     Q   E   Q   E E   +T. S +X    H    Q  Q    Q  Q  Q  Q 
|----0------0-------|-0-------0-------------------|------0--2--|-3--2--0-----| 
|----0--3b5---------|-----3b5-----0---------------|-3----3--3--|-3--3--3--3--| 
|---------------2b4-|---------------2b3r(2)-0-(0)-|-2----2--2--|-2--2--2--2--| 
|-------------------|-----------------------------|-0----0--0--|-0--0--0--0--| 
|-------------------|-----------------------------|------------|-------------| 
|-0-----------------|-----------------------------|------------|-------------| 


                                 |--3--| 
  Q  Q  E   Q  E     +E  Q     E E E   E +Q 
|------------------|------------------------------------| 
|------------------|------------------------------------| 
|------------------|------------------------------------| 
|-2--2--0---2--2---|-(2)-2-------------0-(0)------------| 
|-2--2--0---2--2---|-(2)-2-------0h2--------------------| 
|-0--0--0---0--0---|-(0)-0-----0------------------------| 
| 
| Q  Q  E   Q  E      Q    E   Q     E    E   +T. S +X 
|----0------0------|--0--------0------------------------| 
|----0--3b5--------|-------3b5-------0------------------| 
|--------------2b4-|----------------------2b3r(2)-0-(0)-| 
|------------------|------------------------------------| 
|------------------|------------------------------------| 
|-0----------------|------------------------------------| 


  H    Q  Q    Q  Q  Q  Q 
|------0--2--|-3--2--0-----| 
|-3----3--3--|-3--3--3--3--| 
|-2----2--2--|-2--2--2--2--| 
|-0----0--0--|-0--0--0--0--| 
|------------|-------------| 
|------------|-------------| 
| 
| H    Q  Q    Q  Q  Q  Q 
|------0--2--|-3--2--0-----| 
|-3----3--3--|-3--3--3--3--| 
|-2----2--2--|-2--2--2--2--| 
|-0----0--0--|-0--0--0--0--| 
|------------|-------------| 
|------------|-------------| 


                      |-3-| |---3---| |--3--| 
  Q  Q  E   E E E     E E E E   E   E E E   E Q 
|-------------------|---------------------------------------| 
|-------------------|---------------------------------------| 
|-------------------|---------------------------------------| 
|-2--2--0---2-0-2---|---------------------------------------| 
|-2--2--0---2-0-2---|-0h2-2-0h==2---2-0h2---2-4-------------| 
|-0--0--0---0-0-0---|-0-------------------------------------| 
| 
| Q  Q  E   Q   E     Q     E     Q       E   E   +T. S +X 
|----0------0-------|-0-----------0-------------------------| 
|----0--3b5---------|-------3b5-----------0-----------------| 
|---------------2b4-|-------------------------2b3r(2)-0-(0)-| 
|-------------------|---------------------------------------| 
|-------------------|---------------------------------------| 
|-0-----------------|---------------------------------------| 


  H    Q  Q    Q  Q  Q  Q 
|------0--2--|-3--2--0-------| 
|-3----3--3--|-3--3--3--3----| 
|-2----2--2--|-2--2--2--2----| 
|-0----0--0--|-0--0--0--0----| 
|------------|---------------| 
|------------|---------------| 
| 
| H    Q  Q    Q  Q  Q  Q 
|------0--2--|-3--2--0-------| 
|-3----3--3--|-3--3--3--3----| 
|-2----2--2--|-2--2--2--2----| 
|-0----0--0--|-0--0--0--0----| 
|------------|---------------| 
|------------|---------------| 


  Gtrs I, II 
  W          W          E E E E E E E E   E E E E E E E E 
|----------|----------|-----------------|-----------------| 
|----------|----------|-----------------|-----------------| 
|-5--------|-5--------|-4h5-4h5-4h5-4h5-|-4h5-4h5-4h5-4h5-| 
|-5--------|-5--------|-4---4---4---4---|-4---4---4---4---| 
|-3--------|-3--------|-2---2---2---2---|-2---2---2---2---| 
|----------|----------|-----------------|-----------------| 


  Gtr II 
  Q  Q  Q  Q    Q  Q  Q  Q    W                +W 
|-------------|-------------|---------------|---------| 
|-------------|-------------|---------------|---------| 
|-------------|-------------|---------------|---------| 
|-4-----------|-4-----------|---------------|---------| 
|-2--0--------|-2--0--------|---------------|---------| 
|-------3--2--|-------3--2--|-0-------------|--(0)----| 
| 
| Gtr I 
|                                         ~~~~~~~~~ 
| Q  Q  Q  Q    Q  Q  Q  Q    H.       E  E    +W 
|-------------|-------------|---------------|---------| 
|-------------|-------------|------------12-|-(12)----| 
|-------------|-------------|------------12-|-(12)----| 
|-4-----------|-4-----------|---------14----|---------| 
|-2--0--------|-2--0--------|---------------|---------| 
|-------3--2--|-------3--2--|-0-------------|---------| 


                      |---3---| |--3--| |--3--|   |--3--| 
  Q  Q     E E E E    E   E   E E E   E E E   E   E E   E 
|------------------|--------------------------------------| 
|------------------|--------------------------------------| 
|------------------|--------------------------------------| 
|-2--2-----2-0-2-0-|------------------------------------2-| 
|-2--2-----2-0-2-0-|--0h==2---2-0h2---2-0h2---2---0h2---2-| 
|-0--0-----0-0-0-0-|--0---------------------------------0-| 
| 
| Q  H.              +E     E   E   Q       S   S E   E 
|------------------|--------0-----------------------------| 
|----2-------------|-(2)--------2-------------------------| 
|----2b3===========|=(2)r-----------2-------2p==0-2---x---| 
|------------------|--------------------------------------| 
|------------------|--------------------------------------| 
|------------------|--------------------------------------| 


  +H.             Q     E   E E E E E E   E 
|---------------------|------------------------| 
|---------------------|------------------------| 
|---------------------|------------------------| 
|-(2)-----------------|-x---x-x-x-x-x-x---x----| 
|-(2)-------------2---|-x---x-x-x-x-x-x---x----| 
|-(0)-------------0---|-x---x-x-x-x-x-x---x----| 
| 
|                                     |--3--| 
|  E  E   E E E E E E   Q     E E E E E E   E 
|---------------------|------------------------| 
|-----2---------------|------------------------| 
|--2--2b3-2-0-2-0-2-0-|-2b4---2-0-2-0----------| 
|---------------------|---------------2p0------| 
|---------------------|---------------------2--| 
|---------------------|------------------------| 


  Q   Q     E  Q   E   E E E E E Q   E   E E E   E  E  Q   E   E E E E E Q   E 
|--------------------|-----------------|---------------------|-----------------| 
|--------------------|-----------------|---------------------|-----------------| 
|--------------------|-----------------|---------------------|-----------------| 
|-2---2-----0--2---0-|-2-x-2-x-0-2---0-|-2-x-2---x--0--2---0-|-2-x-2-x-0-2---0-| 
|-2---2-----0--2---0-|-2-x-2-x-0-2---0-|-2-x-2---x--0--2---0-|-2-x-2-x-0-2---0-| 
|-0---0-----0--0---0-|-0-x-0-x-0-0---0-|-0-x-0---x--0--0---0-|-0-x-0-x-0-0---0-| 
| 
| E E Q    +Q    Q     E Q   Q   Q.      E E Q     +Q    Q     E Q   Q   Q. 
|--------------------|-----------------|---------------------|-----------------| 
|--------------------|-----------------|---------------------|-----------------| 
|--------------------|-----------------|---------------------|-----------------| 
|-----7b8r=(7)---5---|-7-5---5---------|-----7b8r==(7)---5---|-7-5-------------| 
|--------------------|-----------7-----|---------------------|-------5---7-----| 
|-0------------------|-----------------|-0-------------------|-----------------| 


  E E H.               E E Q  E   E Q      Q  Q  E   E E E 
|--------------------|-------------------|-------------------| 
|--------------------|-------------------|-------------------| 
|-----2--------------|-------------------|-------------------| 
|---2----------------|-----0--------0----|-2--2--0---2-0-2---| 
|-0------------------|---2--------0------|-2--2--0---2-0-2---| 
|--------------------|-3------2----------|-0--0--0---0-0-0---| 
| 
|              |-3-| 
| E H      +E  E E E   H      Q     Q      Q  Q  E   Q   E 
|--------------------|-------------------|----0------0-------| 
|--------------------|-------------------|----0--3b5---------| 
|--------------------|-------------------|---------------2b4-| 
|-5-7------(7)-7-5---|-5-----------------|-------------------| 
|------------------7-|--------5b7---5b7--|-------------------| 
|--------------------|-------------------|-0-----------------| 


  |-3-| |---3---| |--3--| |----3----| 
  E E E E   E   E E E   E E   E     E 
|---------------------------------------------| 
|---------------------------------------------| 
|---------------------------------------------| 
|---------------------------------------------| 
|-0h2-2-0h==2---2-0h2---2-0h==2-----2---------| 
|-0-------------------------------------------| 
| 
| Q     E     Q       E   E     +T.   S +X 
|-0-----------0-------------------------------| 
|-------3b5-----------0-----------------------| 
|-------------------------2b3r==(2)---0-(0)---| 
|---------------------------------------------| 
|---------------------------------------------| 
|---------------------------------------------| 


  Q   Q     E  Q   E   E E E E E Q   E   E E E   E  E  Q   E   E E E E E Q   E 
|--------------------|-----------------|---------------------|-----------------| 
|--------------------|-----------------|---------------------|-----------------| 
|--------------------|-----------------|---------------------|-----------------| 
|-2---2-----0--2---0-|-2-x-2-x-0-2---0-|-2-x-2---x--0--2---0-|-2-x-2-x-0-2---0-| 
|-2---2-----0--2---0-|-2-x-2-x-0-2---0-|-2-x-2---x--0--2---0-|-2-x-2-x-0-2---0-| 
|-0---0-----0--0---0-|-0-x-0-x-0-0---0-|-0-x-0---x--0--0---0-|-0-x-0-x-0-0---0-| 
| 
| E E Q    +Q    Q     E Q   Q   Q.      E E Q     +Q    Q     E Q   Q   Q. 
|--------------------|-----------------|---------------------|-----------------| 
|--------------------|-----------------|---------------------|-----------------| 
|--------------------|-----------------|---------------------|-----------------| 
|-----7b8r=(7)---5---|-7-5---5---------|-----7b8r==(7)---5---|-7-5-------------| 
|--------------------|-----------7-----|---------------------|-------5---7-----| 
|-0------------------|-----------------|-0-------------------|-----------------| 


  E E H.               E E Q  E   E Q 
|--------------------|-------------------| 
|--------------------|-------------------| 
|-----2--------------|-------------------| 
|---2----------------|-----0--------0----| 
|-0------------------|---2--------0------| 
|--------------------|-3------2----------| 
| 
|              |-3-| 
| E H      +E  E E E   H      Q     Q 
|--------------------|-------------------| 
|--------------------|-------------------| 
|--------------------|-------------------| 
|-5-7------(7)-7-5---|-5-----------------| 
|------------------7-|--------5b7---5b7--| 
|--------------------|-------------------| 


  W                  +E  E E   E Q   Q 
|------------------|--------------------------------| 
|------------------|--------------------------------| 
|------------------|-----5p4---5p4---4--------------| 
|-2----------------|-(2)-2-----2-----2--------------| 
|-2----------------|-(2)----------------------------| 
|-0----------------|-(0)----------------------------| 
| 
| Q  Q  E   Q  E      Q    E   Q   E E   +T. S +X 
|----0------0------|--0--------0--------------------| 
|----0--3b5--------|-------3b5-----0----------------| 
|--------------2b4-|-----------------2b3r(2)-0-(0)--| 
|------------------|--------------------------------| 
|------------------|--------------------------------| 
|-0----------------|--------------------------------| 


  H    Q  Q    Q  Q  Q  Q    W                  +W 
|------0--2--|-3--2--0-----|------------------|-----------------------------| 
|-3----3--3--|-3--3--3--3--|------------------|-----------------------------| 
|-2----2--2--|-2--2--2--2--|------------------|-----------------------------| 
|-0----0--0--|-0--0--0--0--|-2----------------|-(2)-------------------------| 
|------------|-------------|-2----------------|-(2)-------------------------| 
|------------|-------------|-0----------------|-(0)-------------------------| 
| 
| H    Q  Q    Q  Q  Q  Q    Q  Q  E   Q  E      Q   E   Q  E E   +T. S +X 
|------0--2--|-3--2--0-----|----0------0------|--0-------0------------------| 
|-3----3--3--|-3--3--3--3--|----0--3b5--------|------3b5----0---------------| 
|-2----2--2--|-2--2--2--2--|--------------2b4-|---------------2b3r(2)-0-(0)-| 
|-0----0--0--|-0--0--0--0--|------------------|-----------------------------| 
|------------|-------------|------------------|-----------------------------| 
|------------|-------------|-0----------------|-----------------------------| 


  H    Q  Q    Q  Q  Q  Q    Q  Q  E   E E E 
|------0--2--|-3--2--0-----|-------------------| 
|-3----3--3--|-3--3--3--3--|-------------------| 
|-2----2--2--|-2--2--2--2--|-------------------| 
|-0----0--0--|-0--0--0--0--|-2--2--0---2-0-2---| 
|------------|-------------|-2--2--0---2-0-2---| 
|------------|-------------|-0--0--0---0-0-0---| 
| 
| H    Q  Q    Q  Q  Q  Q    Q  Q  E   Q   E 
|------0--2--|-3--2--0-----|----0------0-------| 
|-3----3--3--|-3--3--3--3--|----0--3b5---------| 
|-2----2--2--|-2--2--2--2--|---------------2b4-| 
|-0----0--0--|-0--0--0--0--|-------------------| 
|------------|-------------|-------------------| 
|------------|-------------|-0-----------------| 


  |-3-| |---3---| |--3--| 
  E E E E   E   E E E   E Q 
|-----------------------------------------| 
|-----------------------------------------| 
|-----------------------------------------| 
|-----------------------------------------| 
|-0h2-2-0h==2---2-0h2---2-4---------------| 
|-0---------------------------------------| 
| 
| Q     E     Q       E   E   +T. S +X 
|-0-----------0---------------------------| 
|-------3b5-----------0-------------------| 
|-------------------------2b3r(2)-0-(0)---| 
|-----------------------------------------| 
|-----------------------------------------| 
|-----------------------------------------| 


  Gtrs I, II 
  H    Q  Q    Q  Q  Q  Q    W          W 
|------0--2--|-3--2--0-----|----------|------| 
|-3----3--3--|-3--3--3--3--|----------|------| 
|-2----2--2--|-2--2--2--2--|-5--------|-5----| 
|-0----0--0--|-0--0--0--0--|-5--------|-5----| 
|------------|-------------|-3--------|-3----| 
|------------|-------------|----------|------| 


  E E E E E E E E   E E E E E E E E   Q  Q  Q  Q    Q  Q  Q  Q 
|-----------------|-----------------|-------------|-------------| 
|-----------------|-----------------|-------------|-------------| 
|-4h5-4h5-4h5-4h5-|-4h5-4h5-4h5-4h5-|-------------|-------------| 
|-4---4---4---4---|-4---4---4---4---|-4-----------|-4-----------| 
|-2---2---2---2---|-2---2---2---2---|-2--0--------|-2--0--------| 
|-----------------|-----------------|-------3--2--|-------3--2--| 


  W          +W           +W           +W 
|----------|------------|------------|--------| 
|----------|------------|------------|--------| 
|----------|------------|------------|--------| 
|-2--------|-(2)--------|-(2)--------|-(2)----| 
|-2--------|-(2)--------|-(2)--------|-(2)----| 
|-0--------|-(0)--------|-(0)--------|-(0)----| 


  Gtr I                                Gtr III 
  W          +W           +W           W 
|----------|------------|------------|------| 
|----------|------------|------------|------| 
|----------|------------|------------|------| 
|----------|------------|------------|------| 
|----------|------------|------------|------| 
|-0--------|-(0)--------|-(0)--------|------| 


   W                     Q       E E +Q.    E 
|---------------------|------------------------| 
|-10------------------|-10------10----------7--| 
|--9b11---------------|--9b11------9-(9)-------| 
|---------------------|------------------------| 
|---------------------|------------------------| 
|---------------------|------------------------| 
| 
| Gtr I 
|  E    E E E E E E E    E    Q    H       +E 
|---------------------|------------------------| 
|---------------------|------------------------| 
|---------------------|------------------------| 
|--4------4---4---4---|--7----7----2-------(2)-| 
|--2----0-2-0-2-0-2-0-|--5----5----0-------(0)-| 
|---------------------|------------------------| 


      ~~ 
  Q   H.             E E E E +H 
|------------------|-------------------| 
|------------------|-------------------| 
|-7----------------|---7---------------| 
|-----9------------|-9---9s7-(7)-------| 
|------------------|-------------------| 
|------------------|-------------------| 
| 
| E E E  E E E E E   E Q   H       +E 
|------------------|-------------------| 
|------------------|-------------------| 
|------------------|-------------------| 
|-4---4----4---4---|-7-9---2-------(2)-| 
|-2-0-2--0-2-0-2-0-|-5-7---0-------(0)-| 
|------------------|-------------------| 


   Q       H.              E     E  H. 
|---------17------------|-------17--------------| 
|-17b19-----------------|-17b19----17-----------| 
|-----------------------|-----------------------| 
|-----------------------|-----------------------| 
|-----------------------|-----------------------| 
|-----------------------|-----------------------| 
| 
|  E    E  E  E E E E E    E     Q     H    +E 
|-----------------------|-----------------------| 
|-----------------------|-----------------------| 
|-----------------------|-----------------------| 
|--4-------4----4---4---|--7-----7-----2----(2)-| 
|--2----0--2--0-2-0-2-0-|--5-----5-----0----(0)-| 
|-----------------------|-----------------------| 


   T  T  E.    Q.      +Q    E     E  E  E  E  +H 
|-------------------------------|-------10---------------| 
|-------15----------------------|----10----10-(10)-------| 
|----14-------16------(16)---0/-|-11---------------------| 
|-14----------------------------|------------------------| 
|-------------------------------|------------------------| 
|-------------------------------|------------------------| 
| 
|  E        E  E  E E   E  E E     E  Q     H        +E 
|-------------------------------|------------------------| 
|-------------------------------|------------------------| 
|-------------------------------|------------------------| 
|--4-----------4----4------4----|--7--9-----2--------(2)-| 
|--2--------0--2--0-2---0--2-0--|--5--7-----0--------(0)-| 
|-------------------------------|------------------------| 


                                   |--3--| |--3--|            |----3-----| 
   Q.        S S  Q.        S S    E E   E E E   E E    E     E E        E 
|-----------10-------------10---|---------------------------------------------| 
|-10b12--------7-10b12--------7-|-10p9---7---7---------------10---------------| 
|-------------------------------|----------9-----7-9b11-9b11----9b11-----9b11-| 
|-------------------------------|---------------------------------------------| 
|-------------------------------|---------------------------------------------| 
|-------------------------------|---------------------------------------------| 
| 
|  E    E E  E    E    E E  E      E   Q       H                     +E 
|-------------------------------|---------------------------------------------| 
|-------------------------------|---------------------------------------------| 
|-------------------------------|---------------------------------------------| 
|--4------4-------4------4------|--7---7-------2---------------------(2)------| 
|--2----0-2--0----2----0-2--0---|--5---5-------0---------------------(0)------| 
|-------------------------------|---------------------------------------------| 


  |--3---|    |----3----|  |--3---| |--3--| 
  E E    E    E  E      E  E E    E E E   E 
|-7-7---------7---------7---------------------| 
|-7-7---10b12---10b12-----10-7------7-----7---| 
|--------------------------------10---9-------| 
|---------------------------------------------| 
|---------------------------------------------| 
|---------------------------------------------| 
| 
| E   E       E       E    E   E    E   E 
|---------------------------------------------| 
|---------------------------------------------| 
|---------------------------------------------| 
|-4-----------4------------4--------4---------| 
|-2---0-------2-------0----2---0----2---0-----| 
|---------------------------------------------| 


                   ~~ 
                        |---3---|   |--3--| |--3--| |--3--| |--3--| 
  S    +S  S S S S Q.   E E     E   E E   E E E   E E E   E E E   E 
|---------------------------------|---------------------------------| 
|------------------9--------------|-----------6---7-6-----7-6-----7-| 
|-9b11r(9)-7---9p7-9----7-9-------|-9-----7-9---------9-------9-----| 
|------------9------------------9-|---9-----------------------------| 
|---------------------------------|---------------------------------| 
|---------------------------------|---------------------------------| 
| 
| E        Q       H        +E      E   E   E   E   E   E   E   E 
|---------------------------------|---------------------------------| 
|---------------------------------|---------------------------------| 
|---------------------------------|---------------------------------| 
|-7--------9-------2--------(2)---|-4-------4-------4-------4-------| 
|-5--------7-------0--------(0)---|-2---0---2---0---2---0---2---0---| 
|---------------------------------|---------------------------------| 


                     ~~~~~~~ 
                         |---3----| 
  S    +S  S S E S S Q  +E  E     E 
|-----------------------------------| 
|-----------------------------------| 
|-9b11r(9)-7---9---7-6--(6)-7p====6-| 
|------------9---9------------------| 
|-----------------------------------| 
|-----------------------------------| 
| 
| E        Q     H            +E 
|-----------------------------------| 
|-----------------------------------| 
|-----------------------------------| 
|-7--------7-----2------------(2)---| 
|-5--------5-----0------------(0)---| 
|-----------------------------------| 


                             2/4             4/4 
  |--3--|     |--3--| 
  E E   E E E E E   E E E     E   +S  S E E   +W           +W 
|---------------------------|---------------|------------|--------| 
|---------------------------|---------------|------------|--------| 
|-7-6-----6-6---------------|---------------|------------|--------| 
|-------9-----9-7-----7-----|---------------|------------|--------| 
|-------------------9---7b9-|-7b9r(7)-5-7-7-|-(7)--------|-(7)----| 
|---------------------------|---------------|------------|--------| 
| 
| E   E   E E E   E   E E     E    Q      E   +W           +W 
|---------------------------|---------------|------------|--------| 
|---------------------------|---------------|------------|--------| 
|---------------------------|---------------|------------|--------| 
|-4-------4---4-------4-----|-7----9------2-|-(2)--------|-(2)----| 
|-2---0---2-0-2---0---2-0---|-5----7------0-|-(0)--------|-(0)----| 
|---------------------------|---------------|------------|--------| 


  Gtr II 
                       |-3-| |--3--| |--3--| 
  Q   Q  E E E   E     E E E E E   E E E   E E E   +W 
|--------------------|---------------------------|-------------------| 
|--------------------|---------------------------|-------------------| 
|--------------------|---------------------------|-------------------| 
|-2---2--0-2-0---2---|-----------------------0-2-|-(2)---------------| 
|-2---2--0-2-0---2---|-0h2-2-0-2---2-0-2---2-0-2-|-(2)---------------| 
|-0---0--0-0-0---0---|-0---------------------0-0-|-(0)---------------| 
| 
|     ~                                                  ~ 
|            |--3--|                                          |-3-| 
| E E H      E E   E   Q.        E   E   E   E E    E  E H    E E E 
|--------------------|---------------------------|-------------------| 
|--------------------|---------------------------|-------------------| 
|--------------------|---------------------------|-------------------| 
|--------------------|-5-------------------------|-------------------| 
|-----7------7-5-----|-----------7---5-------5-7-|-------7----7-5----| 
|-0-0--------------7-|-------------------7-------|--0--0----------7--| 


  |----3----| 
  E   +E    E +H              E       E 
|---------------------------------------| 
|---------------------------------------| 
|-2b3r(2)---0-(0)-----------------------| 
|-2b3r(2)---0-(0)-------------0-------2-| 
|-----------------------------0-------2-| 
|---------------------------------------| 
| 
| E       E    E  E X S +T. E X S +T. E 
|---------------------------------------| 
|---------------------------------------| 
|---------------------------------------| 
|-5-------6-----------------------------| 
|--------------7--5---------5-----------| 
|-------------------5s7-(7)---7s5-(5)-3-| 


  Q   Q     E  Q   E   E E E E E Q   E   E E E   E  E  Q   E 
|--------------------|-----------------|---------------------| 
|--------------------|-----------------|---------------------| 
|--------------------|-----------------|---------------------| 
|-2---2-----0--2---0-|-2-x-2-x-0-2---0-|-2-x-2---x--0--2---0-| 
|-2---2-----0--2---0-|-2-x-2-x-0-2---0-|-2-x-2---x--0--2---0-| 
|-0---0-----0--0---0-|-0-x-0-x-0-0---0-|-0-x-0---x--0--0---0-| 
| 
| E E Q    +Q    Q     E Q   Q   Q.      E E Q     +Q    Q 
|--------------------|-----------------|---------------------| 
|--------------------|-----------------|---------------------| 
|--------------------|-----------------|---------------------| 
|-----7b8r=(7)---5---|-7-5---5---------|-----7b8r==(7)---5---| 
|--------------------|-----------7-----|---------------------| 
|-0------------------|-----------------|-0-------------------| 


  E E E E E Q   E   E E H. 
|-----------------|--------------------| 
|-----------------|--------------------| 
|-----------------|-----2--------------| 
|-2-x-2-x-0-2---0-|---2----------------| 
|-2-x-2-x-0-2---0-|-0------------------| 
|-0-x-0-x-0-0---0-|--------------------| 
| 
|                                |-3-| 
| E Q   Q   Q.      E H      +E  E E E 
|-----------------|--------------------| 
|-----------------|--------------------| 
|-----------------|--------------------| 
|-7-5-------------|-5-7------(7)-7-5---| 
|-------5---7-----|------------------7-| 
|-----------------|--------------------| 


  E E Q  E   E Q      Q  Q  E   E E E 
|-------------------|--------------------| 
|-------------------|--------------------| 
|-------------------|--------------------| 
|-----0--------0----|-2--2--0---2-0-2----| 
|---2--------0------|-2--2--0---2-0-2----| 
|-3------2----------|-0--0--0---0-0-0----| 
| 
| H      Q     Q      Q  Q  E   Q   E 
|-------------------|----0------0--------| 
|-------------------|----0--3b5----------| 
|-------------------|---------------2b4--| 
|-5-----------------|--------------------| 
|--------5b7---5b7--|--------------------| 
|-------------------|-0------------------| 


  |-3-| |---3---| |--3--| |----3----| 
  E E E E   E   E E E   E E   E     E 
|-------------------------------------------| 
|-------------------------------------------| 
|-------------------------------------------| 
|-------------------------------------------| 
|-0h2-2-0h==2---2-0h2---2-0h==2-----2-------| 
|-0-----------------------------------------| 
| 
| Q     E     Q       E   E     +T.   S +X 
|-0-----------0-----------------------------| 
|-------3b5-----------0---------------------| 
|-------------------------2b3r==(2)---0-(0)-| 
|-------------------------------------------| 
|-------------------------------------------| 
|-------------------------------------------| 


  Q   Q     E  Q   E   E E E E E Q   E   E E E   E  E  Q   E 
|--------------------|-----------------|---------------------| 
|--------------------|-----------------|---------------------| 
|--------------------|-----------------|---------------------| 
|-2---2-----0--2---0-|-2-x-2-x-0-2---0-|-2-x-2---x--0--2---0-| 
|-2---2-----0--2---0-|-2-x-2-x-0-2---0-|-2-x-2---x--0--2---0-| 
|-0---0-----0--0---0-|-0-x-0-x-0-0---0-|-0-x-0---x--0--0---0-| 
| 
| E E Q    +Q    Q     E Q   Q   Q.      E E Q     +Q    Q 
|--------------------|-----------------|---------------------| 
|--------------------|-----------------|---------------------| 
|--------------------|-----------------|---------------------| 
|-----7b8r=(7)---5---|-7-5---5---------|-----7b8r==(7)---5---| 
|--------------------|-----------7-----|---------------------| 
|-0------------------|-----------------|-0-------------------| 


  E E E E E Q   E   E E H. 
|-----------------|--------------------| 
|-----------------|--------------------| 
|-----------------|-----2--------------| 
|-2-x-2-x-0-2---0-|---2----------------| 
|-2-x-2-x-0-2---0-|-0------------------| 
|-0-x-0-x-0-0---0-|--------------------| 
| 
|                                |-3-| 
| E Q   Q   Q.      E H      +E  E E E 
|-----------------|--------------------| 
|-----------------|--------------------| 
|-----------------|--------------------| 
|-7-5-------------|-5-7------(7)-7-5---| 
|-------5---7-----|------------------7-| 
|-----------------|--------------------| 


  E E Q  E   E Q      E E H. 
|-------------------|--------------------| 
|-------------------|--------------------| 
|-------------------|-----2--------------| 
|-----0--------0----|---2----------------| 
|---2--------0------|-0------------------| 
|-3------2----------|--------------------| 
| 
|                                  |-3-| 
| H      Q     Q      E H      +E  E E E 
|-------------------|--------------------| 
|-------------------|--------------------| 
|-------------------|--------------------| 
|-5-----------------|-5-7------(7)-7-5---| 
|--------5b7---5b7--|------------------7-| 
|-------------------|--------------------| 


  E E Q  E   E Q      E E H.               E E Q  E   E Q      W 
|-------------------|--------------------|-------------------|----------------| 
|-------------------|--------------------|-------------------|----------------| 
|-------------------|-----2--------------|-------------------|----------------| 
|-----0--------0----|---2----------------|-----0--------0----|-2--------------| 
|---2--------0------|-0------------------|---2--------0------|-2--------------| 
|-3------2----------|--------------------|-3------2----------|-0--------------| 
| 
|                                  |-3-| 
| H      Q     Q      E H      +E  E E E   H      Q     Q      Q  Q  E E E E 
|-------------------|--------------------|-------------------|----------------| 
|-------------------|--------------------|-------------------|----------------| 
|-------------------|--------------------|-------------------|----------------| 
|-5-----------------|-5-7------(7)-7-5---|-5-----------------|----------------| 
|--------5b7---5b7--|------------------7-|--------5b7---5b7--|----------------| 
|-------------------|--------------------|-------------------|-0--3--5p0-6p0--| 


  +W               +W 
|----------------|---------------| 
|----------------|---------------| 
|----------------|---------------| 
|-(2)------------|-(2)-----------| 
|-(2)------------|-(2)-----------| 
|-(0)------------|-(0)-----------| 
| 
|  Q   Q  E E Q     Q   Q  Q  Q 
|----------------|---------------| 
|----------------|---------------| 
|----------------|------------7--| 
|-------------5--|--7---8--9-----| 
|------5--7------|---------------| 
|--7--------0----|---------------| 


  +H        E  E   E  E    +W 
|-----------------12----|------------------------| 
|--------------x-----12-|-(12)-------------------| 
|-----------------------|------------------------| 
|-(2)-------------------|------------------------| 
|-(2)-------------------|------------------------| 
|-(0)-------------------|------------------------| 
| 
|  Q    Q   E  Q.           E  E  E  E  E  Q   E 
|-----------------------|------------------------| 
|----------14-14/-------|---x--x-14-14-14-14--12-| 
|--9---12--14-14/-------|---x--x-14-14-14-14--12-| 
|-----------------------|------------------------| 
|-----------------------|------------------------| 
|-----------------------|------------------------| 


   +H      E E  E  E   +W 
|--------------------|-----------------------| 
|-(12)---------------|-----------------------| 
|--------------------|-----------------------| 
|--------------------|-----------------------| 
|---------------0----|-----------------------| 
|------------x-----0-|-(0)-------------------| 
| 
|  +H      E E  E  E    E  E  E  E  E  Q   E 
|--------------------|-----------------------| 
|-(12)---------------|-----x-14-14-14-14--12-| 
|-(12)---------------|-----x-14-14-14-14--12-| 
|---------12---12h14-|-----------------------| 
|--------------------|-----------------------| 
|--------------------|-----------------------| 


   +H      E E  E  E    +W 
|--------------12----|------------------------| 
|------------x----12-|-(12)-------------------| 
|--------------------|------------------------| 
|--------------------|------------------------| 
|--------------------|------------------------| 
|--(0)---------------|------------------------| 
| 
|  +H      E E  E  E     E  E  E  E  E  Q   E 
|--------------------|------------------------| 
|-(12)---------------|------x-14-14-14-14--12-| 
|-(12)---------------|------x-14-14-14-14--12-| 
|---------12---12h14-|------------------------| 
|--------------------|------------------------| 
|--------------------|------------------------| 


   +H      Q    E  E   +Q     H. 
|--------------------|--------0---------------| 
|-(12)---------------|--------0---------------| 
|--------------------|------------------------| 
|------------------2-|-(2)--------------------| 
|------------------2-|-(2)--------------------| 
|---------12s===0--0-|-(0)--------------------| 
| 
|  +H      E E  E  E    E  E  E   E  E  Q   E 
|--------------------|------------------------| 
|-(12)---------------|-----x-14--14-14-14--12-| 
|-(12)---------------|-----x-14--14-14-14--12-| 
|---------12---12h14-|------------------------| 
|--------------------|------------------------| 
|--------------------|------------------------| 


   +W                  W 
|--(0)---------------|---------------------| 
|--(0)---------------|---------------------| 
|--------------------|---------------------| 
|--------------------|---------------------| 
|--------------------|---------------------| 
|--------------------|-0-------------------| 
| 
|  +H      E E  E  E   E E  E  E  E  Q   E 
|--------------------|---------------------| 
|-(12)---------------|---x-14-14-14-14--12-| 
|-(12)---------------|---x-14-14-14-14--12-| 
|---------12---12h14-|---------------------| 
|--------------------|---------------------| 
|--------------------|---------------------| 


   +W                  +W 
|--------------------|-----------------------| 
|--------------------|-----------------------| 
|--------------------|-----------------------| 
|--------------------|-----------------------| 
|--------------------|-----------------------| 
|--(0)---------------|-(0)-------------------| 
| 
|  +H      E E  E  E    E  E  E  E  E  Q   E 
|--------------------|-----------------------| 
|-(12)---------------|-----x-14-14-14-14--12-| 
|-(12)---------------|-----x-14-14-14-14--12-| 
|---------12---12h14-|-----------------------| 
|--------------------|-----------------------| 
|--------------------|-----------------------| 


   +W                  +W 
|--------------------|-----------------------| 
|--------------------|-----------------------| 
|--------------------|-----------------------| 
|--------------------|-----------------------| 
|--------------------|-----------------------| 
|--(0)---------------|-(0)-------------------| 
| 
|  +H      E E  E  E    E  E  E  E  E  Q   E 
|--------------------|-----------------------| 
|-(12)---------------|-----x-14-14-14-14--12-| 
|-(12)---------------|-----x-14-14-14-14--12-| 
|---------12---12h14-|-----------------------| 
|--------------------|-----------------------| 
|--------------------|-----------------------| 


   +W                  +W 
|--------------------|-----------------------| 
|--------------------|-----------------------| 
|--------------------|-----------------------| 
|--------------------|-----------------------| 
|--------------------|-----------------------| 
|--(0)---------------|-(0)-------------------| 
| 
|  +H      E E  E  E    E  E  E  E  E  Q   E 
|--------------------|-----------------------| 
|-(12)---------------|-----x-14-14-14-14--12-| 
|-(12)---------------|-----x-14-14-14-14--12-| 
|---------12---12h14-|-----------------------| 
|--------------------|-----------------------| 
|--------------------|-----------------------| 


                              |-3--|        |-3--| 
   +W                   E  E +E  E E  E  E +E  E E 
|--------------------|-----------------------------| 
|--------------------|-----------------------------| 
|--------------------|-----------------------------| 
|--------------------|-----------------------------| 
|--------------------|-----------------------------| 
|--(0)---------------|--0--0-(0)-0-0--0--0-(0)-0-0-| 
| 
|                             |-3--|        |-3--| 
|  +H      E E  E  E    E  E  E  E E  E  E  E  E E 
|--------------------|-----------------------------| 
|-(12)---------------|-14-14-----x-x-12-12-----x-x-| 
|-(12)---------------|-14-14-----x-x-12-12-----x-x-| 
|---------12---12h14-|-----------------------------| 
|--------------------|-----------------------------| 
|--------------------|-----------------------------| 


         |-3--|        |-3--|    |--3---| |-3-|  |--3---| |-3-| 
   E  E +E  E E  E  E +E  E E    E E    E E E E  E E    E E E E 
|-----------------------------|---------------------------------| 
|-----------------------------|---------------------------------| 
|-----------------------------|---------------------------------| 
|-----------------------------|---------------------------------| 
|-----------------------------|---------------------------------| 
|--0--0-(0)-0-0--0--0-(0)-0-0-|--0-0----0-0-0-0--0-0----0-0-0-0-| 
| 
|        |-3--|        |-3--|             |-3-|           |-3-| 
|  E  E  E  E E  E  E  E  E E    E    E   E E E  E    E   E E E 
|-----------------------------|---------------------------------| 
|-14-14-----x-x-12-12-----x-x-|-14---14-----x-x-12---12-----x-x-| 
|-14-14-----x-x-12-12-----x-x-|-14---14-----x-x-12---12-----x-x-| 
|-----------------------------|---------------------------------| 
|-----------------------------|---------------------------------| 
|-----------------------------|---------------------------------| 


   |--3---| |-3-|  |--3---| |-3-| 
   E E    E E E E  E E    E E E E 
|----------------------------------| 
|----------------------------------| 
|----------------------------------| 
|----------------------------------| 
|----------------------------------| 
|--0-0----0-0-0-0--0-0----0-0-0-0--| 
| 
|           |-3-|           |-3-| 
|  E    E   E E E  E    E   E E E 
|----------------------------------| 
|-14---14-----x-x-12---12-----x-x--| 
|-14---14-----x-x-12---12-----x-x--| 
|----------------------------------| 
|----------------------------------| 
|----------------------------------| 


   |--3---| |-3-|  |--3---| |-3-| 
   E E    E E E E  E E    E E E E 
|---------------------------------| 
|---------------------------------| 
|---------------------------------| 
|---------------------------------| 
|---------------------------------| 
|--0-0----0-0-0-0--0-0----0-0-0-0-| 
| 
|           |-3-|           |-3-| 
|  E    E   E E E  E    E   E E E 
|---------------------------------| 
|-14---14-----x-x-12---12-----x-x-| 
|-14---14-----x-x-12---12-----x-x-| 
|---------------------------------| 
|---------------------------------| 
|---------------------------------| 


   |--3---| |-3-|  |-3--| |-3--| 
   E E    E E E E  E E  E E  E E   W 
|--------------------------------|----------------| 
|--------------------------------|----------------| 
|--------------------------------|----------------| 
|--------------------------------|----------------| 
|--------------------------------|----------------| 
|--0-0----0-0-0-0--0-0--0-0--0-0-|-0--------------| 
| 
|           |-3-|  |----3----| 
|  E    E   E E E  Q    Q    Q     H.      +E   E 
|--------------------------------|----------------| 
|-14---14-----x-x-12---12---12---|-9-------(9)-14-| 
|-14---14-----x-x-12---12---12---|-9-------(9)-14-| 
|--------------------------------|----------------| 
|--------------------------------|----------------| 
|--------------------------------|----------------| 


   +W                   +W            +W           H     H 
|--------------------|-------------|-------------|------------*| 
|--------------------|-------------|-------------|------------*| 
|--------------------|-------------|-------------|------------*| 
|--------------------|-------------|-------------|------------*| 
|--------------------|-------------|-------------|------------*| 
|--(0)---------------|--(0)--------|--(0)--------|-0----------*| 
| 
|  +E   Q   Q   Q.      +W            +W           H     H 
|--------------------|-------------|-------------|------------*| 
|-(14)-14--14--12----|-(12)--------|-(12)--------|------------*| 
|-(14)-14--14--12----|-(12)--------|-(12)--------|-9---------*| 
|--------------------|-------------|-------------|-9---------*| 
|--------------------|-------------|-------------|------------*| 
|--------------------|-------------|-------------|------------*| 
	  

Search Paypal
auto scroll beats size up size down change color hide chords drawings
tab show chords e-chords YouTube Clip e-chords hide all tabs e-chords go to top tab